Afi

Smile Bass Tabs



More from Afi

Afi Tabs
Afi Chords
Afi Bass
Afi Lyrics



h= hammer on
r= let ring
m= mute


intro and brigde? theres really no chorus to this song
|----------------------------------------------|
|---2r----rest----------play fast--------------|
|-------------------5r6r7-5r6r7-5r6r7--5r6r7-7-|
|0>----0m----------------------------------------|

Verse second time
|-------------------------------------------|---------------|
|-------------------------------------------|---------------|
|---5---77---5---77--------5---77-----------|---------------|
|-0---0----0---0----5-7--0---0----7-5-3-2h3-|-7-5-3-2-3-2-0-|

i'll set the world on fire
|-------------------|
|-------------------|
|--------5r--1r-----|
|0r--3r----------0m-|

ending
|-----------------------------------------------|
|-----------------------------------------------|
|-----------------------------------------------|
|7-5-3-2-3-2--7-5-3-2-3-2--7-5-3-2-3-2--7-5-3-0-|

that's how i play it, pobably not right though.

angry song , woo!
- the knaughtyviking

Taken from The BassMasta -- http://www.tabs-database.com



Get this song at amazon.com      Ebay     Ringtones Ringtones  


Learn to play: Songwriting, Piano, Harmonica, Guitar
Also available at Muzikum: AFI - Smile lyrics

Related Afi Bass Tabs

Rolling Balls bass
Shatty Fatimas bass
Miss Murder(complete) bass
Rizzo In A Box bass
The Mother In Me bass
The missing frame bass
Wake Up Call bass
Rabbits are roadkill on route 37 bass
Consult My Lover bass
Hidden Track To Sing The Sorrow bass
The Nephilim bass
Modern Epic bass
Wester bass
Bleed Black bass
The Leaving Song Part 2 bass
Todays Lesson bass
Sts Hidden Song bass
Dream Of Waking bass
Ph Low bass
Smile bass


Guitar Tabs









All tabs are property and copyright of their owners. All tabs provided for educational purposes only. Privacy Policy, DMCA