Afi

Self Pity Bass Tabs



More from Afi

Afi Tabs
Afi Chords
Afi Bass
Afi Lyrics



-------------------------------------------------------------------------------
SELF PITY - AFI
-------------------------------------------------------------------------------



Intro
G:---------|
D:-4-7-----|
A:-----7-4-|
E:---------|

Verse 2x
G:---------------------------------|
D:-4-4-4-4-------------------------|
A:-----------------7-7-7-7-4-4-4-4-|
E:---------5-5-5-5-----------------|

Pre-Chorus 2x
G:-------------------------|
D:-4-4-4-7-7-7-------------|
A:-------------7-7-7-4-4-4-|
E:-------------------------|

Chorus
G:-----------------------------5-7-5---|
D:-4-4-4-2-4-4-4-2-4-4-4-2-5-7-------7-|
A:-------------------------------------|
E:-------------------------------------|

repeat Verse 2x
repeat Pre-Chorus 2x
repeat Chorus
repeat Verse 2x
repeat Pre-Chorus 2x
repeat Chorus

End
G:-------------------------------|
D:-4-4-4-2-4-4-4-2-4-4-4-2-5-5-5-|
A:-------------------------------|
E:-------------------------------|

-------------------------------------------------------------------------------

Taken from The BassMasta -- http://www.tabs-database.com



Get this song at amazon.com      Ebay     Ringtones Ringtones  


Learn to play: Songwriting, Piano, Harmonica, Guitar
Also available at Muzikum: AFI - Self Pity lyrics

Related Afi Bass Tabs

Days Of The Pheonix bass
Dream Of Waking bass
The Leaving Song Pt 2 bass
Bleed Black bass
Aspirin Free bass
3 12 bass
Killing Lights bass
Now The World bass
The Despair Factor bass
Miss Murder(complete) bass
Open Your Eyes bass
Who Said You Could Touch Me? bass
Two Of A Kind bass
Morningstar bass
Catch A Hot One bass
The Leaving Song Pt. Ii bass
The Hanging Garden bass
Lower It bass
This Time Imperfect bass
37mm bass


Guitar Tabs









All tabs are property and copyright of their owners. All tabs provided for educational purposes only. Privacy Policy, DMCA