Afi

Salt For Your Wounds Tabs



More from Afi

Afi Tabs
Afi Chords
Afi Bass
Afi Lyrics



-------------------------------------------------------------------------------
SALT FOR YOUR WOUNDS - AFI
-------------------------------------------------------------------------------

By:Alex Ruiz (goodvandal@aol.com)

= slide down
PM=palm mute
xx=pick scratch

Intro:
e|---------------------------------------------------------------------------]
B|---------------------------------------------------------------------------]
G|--9-9-9-9-9-9-9-9--10-10-10--4-4-4------------------------9-9-9-9-9-9-9-9-|
D|--9-9-9-9-9-9-9-9--10-10-10--4-4-4-play this 3 times then-9-9-9-9-9-9-9-9-|
A|--7-7-7-7-7-7-7-7--8--8--8---2-2-2------------------------7-7-7-7-7-7-7-7-|
E|--7-7-7-7-7-7-7-7--8--8--8---2-2-2------------------------7-7-7-7-7-7-7-7-|

Intro:
-----------------------------------------------------------------------------]
-----------------------------------------------------------------------------]
-----------------------------------------------------------------------------|
--3--10----------------------------------------------------------------------|
--3--10----------------------------------------------------------------------|
--1--8-----------------------------------------------------------------------|

Verse 1: Theres a tear in my heart where the blood ran out...............
e|---------------------------------------------------------------------------|
B|---------------------------------------------------------------------------|
G|---------------10-10-10-10-10-10-------------------------------------------|
D|--7-7-7-7-7-7--10-10-10-10-10-10-8-8-8-8-8-8-8-8-8--108-------------------|
A|--7-7-7-7-7-7--8--8--8--8--8--8--8-8-8-8-8-8-8-8-8--108-------------------|
E|--5-5-5-5-5-5--8--8--8--8--8--8--6-6-6-6-6-6-6-6-6--8-6-------------------|

e|---------------------------------------------------------------------------|
B|---------------------------------------------------------------------------|
G|---------------10-10-10-10-10-10-------------------------------------------|
D|--7-7-7-7-7-7--10-10-10-10-10-10-8-8-8-8-8-8-8-8-8---6---------------------|
A|--7-7-7-7-7-7--8--8--8--8--8--8--8-8-8-8-8-8-8-8-8---6---------------------|
E|--5-5-5-5-5-5--8--8--8--8--8--8--6-6-6-6-6-6-6-6-6---4---------------------|

e|---------------------------------------------------------------------------|
B|---------------------------------------------------------------------------|
G|---------------10-10-10-10-10-10-------------------------------------------|
D|--7-7-7-7-7-7--10-10-10-10-10-10-8-8-8-8-8-8-8-8-8--108-------------------|
A|--7-7-7-7-7-7--8--8--8--8--8--8--8-8-8-8-8-8-8-8-8--108-------------------|
E|--5-5-5-5-5-5--8--8--8--8--8--8--6-6-6-6-6-6-6-6-6--8-6-------------------|

e|---------------------------------------------------------------------------|
B|---------------------------------------------------------------------------|
G|---------------10-10-10-10-10-10-------------------------------------------|
D|--7-7-7-7-7-7--10-10-10-10-10-10-8-8-8-8-8-8-8-8-8---6---------------------|
A|--7-7-7-7-7-7--8--8--8--8--8--8--8-8-8-8-8-8-8-8-8---6---------------------|
E|--5-5-5-5-5-5--8--8--8--8--8--8--6-6-6-6-6-6-6-6-6---4---------------------|

Chorus: Disenchanted, disgusted i regret that i trusted.....................
e|---------------------------------------------------------------------------|
B|---------------------------------------------------------------------------|
G|-9-9-9-9-9-9-9-9---------------------------9-9-9-9-9-----------------------|
D|-9-9-9-9-9-9-9-9--10-10-10-10-10-10-10-10--9-9-9-9-9--10-10-10-10-10-------|
A|-7-7-7-7-7-7-7-7--10-10-10-10-10-10-10-10--7-7-7-7-7--10-10-10-10-10-------|
E|-7-7-7-7-7-7-7-7--8--8--8--8--8--8--8--8---7-7-7-7-7--8--8--8--8--8--------|

e|---------------------------------------------------------------------------|
B|---------------------------------------------------------------------------|
G|-10-10-10-10-10------------9-9-9-9-9-9-9-9--------------9-9-9-9-9-9-9-9----|
D|-10-10-10-10-10-9-9-9-9-9--9-9-9-9-9-9-9-9--10-10-10-10-9-9-9-9-9-9-9-9-6-6|
A|-8--8--8--8--8--9-9-9-9-9--7-7-7-7-7-7-7-7--10-10-10-10-7-7-7-7-7-7-7-7-6-6|
E|-8--8--8--8--8--7-7-7-7-7--7-7-7-7-7-7-7-7--8--8--8--8--7-7-7-7-7-7-7-7-4-4|

Verse 2: same as verse 1

Chorus:EVERYTHING IS THE SAME EXCEPT THE ENDING
WHICH IS THE breakdown

THEY TWISTED THE KNIFE FURTHER IN............................
e|---------------------------------------------------------------------------|
B|(end of chorus)------------------------------------------------------------|
G|9---9-------------------------3---3-------3---3-------3---3-------3---3----|
D|9-8-9-7 let ring....-------------------------------------------------------|
A|7-8-7-7-----------------1-1-1---1---------------2-2-2---2------------------|
E|7-6-7-5-----------------------------2-2-2---2---------------1-1-1---1------|

e|---------------------------------------------------------------------------|
B|---------------------------------------------------------------------------|
G|-------3---3-------3---3--------3----3-------3---3----3XX333--------4XX444-|
D|------------------------------------------------------3XX333-4XX444-4XX444-|
A|-1-1-1---1---------------2-2-2----2-------------------1XX111-4XX444-2XX222-|
E|-------------2-2-2---2-----------------1-1-1---1------1XX111-2XX222-2XX222-|

e|---------------------------------------------------------------------------|
B|---------------------------------------------------------------------------|
G|----------3XX333--------4XX444--222222-------------------------------------|
D|-3XX333---3XX333-4XX444-4XX444--222222-------------------------------------|
A|-3XX333---1XX111-4XX444-2XX222--XXXXXX-------------------------------------|
E|-1XX111---1XX111-2XX222-2XX222--XXXXXX-------------------------------------|

THEN GO INTO THE VERSE CHORDS
(DURING THE SOLO I HAVENT QUITE LEARNED YET)

AFTER THE VERSE CHORDS THEY PLAY THE CHORUS
ALL THE WAY OUT

-------------------------------------------------------------------------------


Get this song at amazon.com      Ebay     Ringtones Ringtones  


Learn to play: Songwriting, Piano, Harmonica, Guitar
Also available at Muzikum: AFI - Salt For Your Wounds lyrics

Related Afi Tabs

Catch A Hot One tabs
The Leaving Song Part Two tabs
Missing Frame tabs
A Winter Tale tabs
The Lost Souls (perfect) tabs
6 To 8 (perfect) tabs
Days Of The Pheonix tabs
This Celluliod Dream tabs
Miss Murder Live tabs
Synesthesia tabs
Exsanguination tabs
But Home Is Nowhere tabs
Born In The Usa tabs
37 mm tabs
6 To 8 tabs
Three Seconds Notice tabs
Scarifice Theory Solo tabs
Rizzo In A Box tabs
Perfect Fit tabs
Kiss And Control tabs


Guitar Tabs









All tabs are property and copyright of their owners. All tabs provided for educational purposes only. Privacy Policy, DMCA