Afi

Reivers Music Bass Tabs



More from Afi

Afi Tabs
Afi Chords
Afi Bass
Afi Lyrics



Artist: AFI
Song: Reiver's Music
Album: 336 ep
Bassist: Hunter
Tuning: Half a Step Down
Tabbed by: Spidey255

No intro

Verse
G|------------------------------------|
D|------------------------------------|
A|-7-7-7-7-7-7-7-7-10-10-10-9-9-9-5-4-|
E|------------------------------------|


G|---------------------------|
D|---------------------------|
A|-7-7-7-7-7-7-7-7-----5-----|
E|-----------------3-2---333-|

G|------------------------------------|----------|
D|------------------------------------|----------|
A|-7-7-7-7-7-7-7-7-10-12-10-9-9-9-5-4-|-7-7-7-7-|
E|------------------------------------|----------|

Prechorus
G|-------------------------------|
D|----------------------------9~-|
A|-5555-7777-9999-10-10-10-10----|
E|-------------------------------|

Chorus

G|------------------------------------------------------|
D|-5----------------------------------------------------|
A|---55------------222-3-55-3-2-3333333-2-0----2-3-5555-|
E|------0000-33-55--------------------------33----------|

(cont.)
G|------------------------------------------------------|
D|------------------------------------------------------|
A|------------222-3-55-3-2-33333333-2222222222222222----|
E|-0000-33-55----------------------------------------0~-|

-verse

prechorus
G|----------------------------------|
D|-------------------------------9>-|
A|-5555-7777-9999-10-10-10-10-2-----|
E|----------------------------------|

Chorus 2x

Chorus variation 2x
G|--------|---------------------------------------------------------------|
D|--------|------55-77-999-10-12-12-10-9-10-10-10-10-10-10-9-7-555-4----7-|
A|-10-5-5-|-7777-----------------------------------------------------555--|
E|--------|---------------------------------------------------------------|

End that chorus with chorus (cont.)

Bridge
G|----|--------------------------------------9~------------------|
D|----|-10-10------------10-10-----------7h9----10-10------------|
A|-7>-|-------10~-5-5-7~-------10~-5-5-7--------------10~-5-5-7~-|
E|----|----------------------------------------------------------|

(cont.)
G|------------------|
D|-10-10---------7~-|
A|-------10~-5-5----|
E|------------------|

Prechorus
G|---------------------------|
D|---------------------------|
A|-2222-3333-5555-2222222/14-|
E|---------------------------|

First Chorus 2x
Second Chorus 2x

Ending Chorus 3x
G|---------------------------------------|
D|---5-7-9-12-10-9-10-10-9-7-5-5-5-----7-|
A|-7-------------------------------5-5---|
E|---------------------------------------|

Ending
G|----------------|
D|---5-7-9-12-10~-|
A|-7--------------|
E|----------------|

Taken from The BassMasta -- http://www.tabs-database.com



Get this song at amazon.com      Ebay     Ringtones Ringtones  


Learn to play: Songwriting, Piano, Harmonica, Guitar
Also available at Muzikum: AFI - Reivers Music lyrics

Related Afi Bass Tabs

Cruise Control bass
Morningstar bass
Days Of The Pheonix bass
Let It Be Broke bass
Strength Through Wounding bass
Leaving Song bass
Consult My Lover bass
My Michelle bass
Story At Three bass
A Story At Three bass
The Leaving Song bass
Bleed Black bass
Rolling Balls bass
37mm bass
The Hanging Garden bass
Silver And Cold bass
Take The Test bass
Our Band Is Shit bass
Miss Murder Intro bass
Porphyria Cutanea Tarda bass


Guitar Tabs









All tabs are property and copyright of their owners. All tabs provided for educational purposes only. Privacy Policy, DMCA