Afi

Porphyria Cutanea Tarda Tabs



More from Afi

Afi Tabs
Afi Chords
Afi Bass
Afi Lyrics



Porphyria Cutanea Tarda


Here is the tab 4 this song. ENJOY!!!!!!!!!!!!
Standard tuning.


Intro

|-------------------=
|-------------------=
|---4--5--7--4--4---=
|---4--5--7--4--4---=
|---2--3--5--2--2---=
|-------------------=


Verse 1

|----------------------------------------------------------=
|----------------------------------------------------------=
|----------------------------------------------------------=
|---2--8--7--5--5--7--5--7--5--2--8--7--5--5--7--5--7--2---=
|---2--8--7--5--3--7--5--7--5--2--8--7--5--5--7--5--7--2---=
|---0--6--5--3--3--5--3--5--3--0--6--5--3--3--5--3--5--0---=


Chorus

|---3--5--3--0--3--5--0--3--5--3--0--3--5--0---=
|---5--7--3--0--5--7--0--5--7--3--0--5--7--0---=
|---5--7--4--1--5--7--1--5--7--4--1--5--7--1---=
|---5--7--5--2--5--7--2--5--7--5--2--5--7--2---=
|---3--5--5--2--3--5--2--3--5--3--2--3--5--2---=
|---3--5--3--0--3--5--0--3--5--3--0--3--5--0---=


Verse 2

|----------------------------------------------------------=
|----------------------------------------------------------=
|----------------------------------------------------------=
|---2--8--7--5--5--7--5--7--5--2--8--7--5--5--7--5--7--2---=
|---2--8--7--5--3--7--5--7--5--2--8--7--5--5--7--5--7--2---=
|---0--6--5--3--3--5--3--5--3--0--6--5--3--3--5--3--5--0---=


Chorus

|---3--5--3--0--3--5--0--3--5--3--0--3--5--0---=
|---5--7--3--0--5--7--0--5--7--3--0--5--7--0---=
|---5--7--4--1--5--7--1--5--7--4--1--5--7--1---=
|---5--7--5--2--5--7--2--5--7--5--2--5--7--2---=
|---3--5--5--2--3--5--2--3--5--3--2--3--5--2---=
|---3--5--3--0--3--5--0--3--5--3--0--3--5--0---=


Bridge

|-------------------------------------------------=
|-------------------------------------------------=
|------3--2-----2--------2--4--5--7--4--3--4--6---=
|---2--3--2--5--2--2--5--2--4--5--7--4--3--2--6---=
|---2--1--0--5--0--2--5--0--2--3--5--2--1--2--4---=
|---0--------3-----0--3---------------------------=


Outro

|----------------------------------------------=
|----------------------------------------------=
|------4--2--------2--------4--2--------2------=
|---2--4--2--5--5--2--2--2--4--2--5--5--2--2---=
|---2--2--0--5--5--0--2--2--2--0--5--5--0--2---=
|---0--------3--3-----0--0--------3--3-----0---=




Tha't it. ENJOY!!!!!!!!!!!!!


Get this song at amazon.com      Ebay     Ringtones Ringtones  


Learn to play: Songwriting, Piano, Harmonica, Guitar
Also available at Muzikum: AFI - Porphyria Cutanea Tarda lyrics

Related Afi Tabs

Last Caress tabs
Narrative Of Soul Against Soul tabs
Total Immortal Bass tabs
The Dispair Factor tabs
Cereal wars tabs
Who Knew tabs
I Wanna Mohawk tabs
3 12 Bass tabs
This Celluliod Dream tabs
I Wanna Get A Mohawk (but Mom Won't Let Me Get One) tabs
Charls Atalis tabs
Girls Not Grey tabs
Clove Smoke Catharsis tabs
Ny Quil tabs
Missing Frame tabs
Half Empty Bottle tabs
Halloween tabs
Born In The Usa tabs
Hearts Frozen Soil tabs
Now The World tabs


Guitar Tabs









All tabs are property and copyright of their owners. All tabs provided for educational purposes only. Privacy Policy, DMCA