Afi

Porphyria Cutanea Tarda Bass Tabs



More from Afi

Afi Tabs
Afi Chords
Afi Bass
Afi Lyrics



Artist: AFI
Song: Porphyria Cutanea Tarda
Album: Black Sails In The Sunset
Bassist: Hunter
Tuning: Standard
Tabbed by: Spidey255

Intro
G|-----------------------|
D|-----------------------|
A|-2222222222222222------|
E|-------------------0-0-|

Verse
G|------------------------------------------|
D|------------------------------------------|
A|--------------------3-555-----------------|
E|-00000-6-5-33333333-------3-555-6666-3333-|

G|--------------------------------------------------|
D|--------------------------------------------------|
A|--------------------3-5------------------77777777-|
E|-00000-6-5-33333333-----2-3-5-3-00000000----------|

Chorus
G|------------------------|-------------------|---------------------------------|
D|------------------------|-------------------|---------------------------------|
A|-3333-5555--------------|-3333-5555------77-|-7----7----5/777-5/777-5/777-14-|
E|-----------3-5-3-2-0000-|-----------0000----|---00---00-----------------------|
| or /
G|---------------------|
D|---------------------|
A|-3333-5555-----------|
E|-----------3333-0000-|/
-verse
-chorus

Chorus Ending (replace the 5/777 and on with this)
G|------------------|
D|------------------|
A|-5-7b-5-----------|
E|--------000000000-|

Bridge
G|----------------------------|----------------------------------------|
D|----------------------------|----------------------------------------|
A|---7----------------5-7-5---|---7------------------------------------|
E|-0---6-5-3-3-5-0000-------7-|-0---6-5-3-3-5-000000-3-5-7777777777777-|

G|---------------------------|
D|---------------------------|
A|-7777-9999-10-10-10-10-14-|
E|---------------------------|

Ending
G|------------------------------------------|
D|------------------------------------------|
A|------7-5-333333-5----------------5-7-5---|
E|-0000--------------3333-5555-0000-------7-|

G|-----------------------------------------7---7-9-|
D|------------------------------------9-10---9-----|
A|-------7-5-3333333-5-----------7h10--------------|
E|-00000---------------3333-5555-------------------|

G|------------------------------------------|
D|------------------------------------------|
A|------7-5-333333-5----------------5-7-5---|
E|-0000--------------3333-5555-0000-------7-|

G|------------------------------------------|
D|------------------------------------------|
A|------7-5-3333333-5------5555----------7~-|
E|-0000---------------3333------000-7-00----|

Taken from The BassMasta -- http://www.tabs-database.com



Get this song at amazon.com      Ebay     Ringtones Ringtones  


Learn to play: Songwriting, Piano, Harmonica, Guitar
Also available at Muzikum: AFI - Porphyria Cutanea Tarda lyrics

Related Afi Bass Tabs

Love Like Winter bass
God Called In Sick Today bass
The Prayer Position bass
Values Here bass
Transference bass
Fall Children bass
Todays Lesson bass
3 1 2 bass
Yurf Rendenmein bass
Last Caress bass
Consult My Lover bass
The missing frame bass
Of Greatings & Goodbyes bass
The Last Kiss bass
Dont Make Me Ill bass
Kill Caustic bass
Ny Quil bass
Ever And A Day bass
Charles Atlas bass
Born In The Usa bass


Guitar Tabs









All tabs are property and copyright of their owners. All tabs provided for educational purposes only. Privacy Policy, DMCA