Afi

Ph Low Bass Tabs



More from Afi

Afi Tabs
Afi Chords
Afi Bass
Afi Lyrics



AFI-pH low
CD-shut your mouth and open your eyes
>-play a lot
PLEASE RATE THIS TAB!

Intro
G--------------------------------------------
D-----------5-----------------5--------------
A----2-3-55---5--------2-3-55---5------------
E-5------------------5---------------5>------

Verse
G------------------------------------------------------
D------------------------------------------------------
A-------33-3--------------33333333-5555-10-10-10-10----
E-55-5--------77777777---------------------------------

Bridge
G-------------------------
D-------------------------
A-88888888-77777777-------
E-------------------------

Chorus
G--------------------------------------------
D--------------------------------------------
A----88-7------88-7------88-7-10-10-10-10----
E-55--------55--------55---------------------

Break(“die for me?”)
G-------------------
D-------------------
A-8>--10>-----------
E-----------5>------

Outro End
G----------------------- -------------------
D----------------5------ -------------------
A-----2>--3>--55---5---- -------555---------
E-5>-------------------- -555-------555-----

Taken from The BassMasta -- http://www.tabs-database.com



Get this song at amazon.com      Ebay     Ringtones Ringtones  


Learn to play: Songwriting, Piano, Harmonica, Guitar
Also available at Muzikum: AFI - Ph Low lyrics

Related Afi Bass Tabs

The Leaving Song Part 2 bass
Silver And Cold bass
He Who Laughs Last bass
Smile bass
Death Of Seasons bass
Rizzo In The Box bass
Rizzo In The Box(correct) bass
Miss Murder (correct! G D A D Tuning) bass
Narrative Of Soul Against Soul bass
Wester bass
Love Like Winter bass
Fall Children bass
Over Exposure bass
Miss Murder 100% Correct bass
Catch A Hot One bass
The Leaving Song Pt 2 bass
Holloween bass
Miss Murder(complete) bass
The Checkered Demon bass
What Ever I Do bass


Guitar Tabs









All tabs are property and copyright of their owners. All tabs provided for educational purposes only. Privacy Policy, DMCA