Afi

Paper Airplanes (makeshift Wings) Bass Tabs



More from Afi

Afi Tabs
Afi Chords
Afi Bass
Afi Lyrics



Intro
G|--------------------------|
D|--------------------------|
A|-3/5>-3-3/5>-3-3/5>-3-3/5-|
E|--------------------------|

Verse
G|-----------------|
D|-----------------|
A|-1>-3333-5>-0000-|
E|-----------------|

Prechorus
G|-----------------------------|------|
D|-----------------------------|------|strum all notes in between
A|-1-1-333-5555-1-1-1-33333333-|-153-|that slide
E|-----------------------------|------|

Chorus
G|-----------------------------------------------------------|
D|-----------------------------------------------------------|
A|-5>-8>----------------------2-3-5555-3333-1111/13-13-13-13-|
E|-------6-6-6-5-4-3-3-3-3-3-3-------------------------------|

G|----------------------------------------------------------|
D|----------------------------------------------------------|
A|-5555----------------------2-3-5555-3333-1111/13-13-13-13-|
E|------11111-666-5-4-333333--------------------------------|

Intro
G|---------------------------------------|
D|---------------------------------------|
A|-3/5>-3-3/5>-3-3/5>-3-3/5-3/5-3/5-3/17-|
E|---------------------------------------|

verse
prechorus
chorus

That confusing guitar part jade does, hammer on the 3 to 5 instead of sliding.
On the last one slide down from the 15th fret on the a string

Bridge repeat until distortion comes in
G|----------------------|
D|-----7~---------------|
A|-5-5---3-3-2-3-5~-3h5-|
E|----------------------|

Distorted Part
G|----|------------------|---------------------|---------|
D|----|------------------|---------------------|---------|
A|-5>-|---------------5>-|-3/5-5-5-3-5-6-5-3-5-|-3-5-3-5-|
E|----|-6-6-6/83-3-3----|---------------------|---------|

Chorus



Get this song at amazon.com      Ebay     Ringtones Ringtones  


Learn to play: Songwriting, Piano, Harmonica, Guitar
Also available at Muzikum: AFI - Paper Airplanes Makeshift Wings lyrics

Related Afi Bass Tabs

Take The Test bass
Who Said You Could Touch Me? bass
The Last Kiss bass
Days Of The Phoenix bass
Paper Airplanes (makeshift Wings) bass
Miss Murder(complete) bass
Kill Caustic bass
God Called In Sick Today bass
High School Football Hero bass
Todays Lesson bass
Silver And Cold bass
Bleed Black bass
Sts Hidden Song bass
Cult Status bass
Hidden Track To Sing The Sorrow bass
Miss Murder bass
Crop Tub bass
The Leaving Song bass
The Leaving Song Part Ii bass
Reivers Music bass


Guitar Tabs









All tabs are property and copyright of their owners. All tabs provided for educational purposes only. Privacy Policy, DMCA