Afi

Now The World Bass Tabs



More from Afi

Afi Tabs
Afi Chords
Afi Bass
Afi Lyrics



Artist: AFI
Album: 336 Vinyl
Song: Now the World
Bassist: Hunter
Tabbed by: Krunchy


This was originally tabbed by Hunter, but it was a little messed up. This tab is in order.


. = Pause
~ = Sustain
= Slide
> = Strum

Intro:
G|-------9-------------------2/7-5------7--------|
D|---2/7---7----10---------0-------7-55---5555-7-|
A|-0---------88----8888-10-----------------------|
E|-----------------------------------------------|

G|-------9-------------------2/7-5------7--------|
D|---2/7---7----10---------0-------7-55---5555-7-|
A|-0---------88----8888-10-----------------------|
E|-----------------------------------------------|

G|-------9-------------------2/7-5------7--------|
D|---2/7---7----10---------0-------7-55---5555-7-|
A|-0---------88----8888-10-----------------------|
E|-----------------------------------------------|

G|-------9-------------------2/7-5------7-----------|
D|---2/7---7----10---------0-------7-55---5555-7~---|
A|-0---------88----8888-10--------------------------|
E|--------------------------------------------------|


Verse:
G|-------------------------------|
D|-7~---(Sustained From Intro)---|
A|-------------------------------|
E|-------------------------------|

G|----------------------------------------------------------------|
D|-10-10-10-10-10-10-10-10----------------------------------------|
A|-------------------------12-12-12-12-12-12-1211111111-22222222-|
E|----------------------------------------------------------------|

G|-----------------------------------------|
D|----------------------------5555555-7~---|
A|-----------------------------------------|
E|-44444444-11111111-33333333--------------|

G|-------------------------------------------------------------------12~---|
D|-7~---(Sustained From First Half of the Verse)---14~---15~---12~---------|
A|-------------------------------------------------------------------------|
E|-------------------------------------------------------------------------|

G|----------------------------------------------------------------|
D|-10-10-10-10-10-10-10-10----------------------------------------|
A|-------------------------12-12-12-12-12-12-1211111111-22222222-|
E|----------------------------------------------------------------|

G|--------------------------------------------------|
D|--------------------------------------------------|
A|--------------------------/10-10-10-10-8-10-10-10-|
E|-44444444-11111111-333333-------------------------|


Chorus:
G|------------------------------------------------------------------------------|
D|--------------------------------------------55--------------------------------|
A|----------66666666-----------------8-----------55-666666-5--------------------|
E|-88888888----------66666666-4444-6---6-8888----------------66666666-3333-5555-|

G|------------------------------------------------------------------------------|
D|--------------------------------------------55--------------------------------|
A|----------66666666-----------------8-----------55-666666-5--------------------|
E|-88888888----------66666666-4444-6---6-8888----------------66666666-3333-5555-|

G|-----------------|
D|-----------------|
A|-----------------|
E|-8888888888888-7-|


Post Chorus (Intro):
G|-------9-------------------2/7-5------7--------|
D|---2/7---7----10---------0-------7-55---5555-7-|
A|-0---------88----8888-10-----------------------|
E|-----------------------------------------------|

G|-------9-------------------2/7-5------7-----------|
D|---2/7---7----10---------0-------7-55---5555-7~---|
A|-0---------88----8888-10--------------------------|
E|--------------------------------------------------|


Verse:
G|-------------------------------------------------------12~---|
D|-7~---(Sustained From Post Chorus)---14~---15~---12~---------|
A|-------------------------------------------------------------|
E|-------------------------------------------------------------|

G|----------------------------------------------------------------|
D|-10-10-10-10-10-10-10-10----------------------------------------|
A|-------------------------12-12-12-12-12-12-1211111111-22222222-|
E|----------------------------------------------------------------|

G|--------------------------------------------------|
D|--------------------------------------------------|
A|--------------------------/10-10-10-10-8-10-10-10-|
E|-44444444-11111111-333333-------------------------|


Chorus:
G|--------------------------------------------------------------------------------|
D|----------------------------------------------55--------------------------------|
A|----------66666666-----------------8-------------55-666666-5--------------------|
E|-88888888----------66666666-4444-6---6-8--888----------------66666666-3333-5555-|

G|--------------------------------------------------------------------------------|
D|----------------------------------------------55--------------------------------|
A|----------66666666-----------------8-------------55-666666-5--------------------|
E|-88888888----------66666666-4444-6---6-8--888----------------66666666-3333-5555-|


Bridge:
G|-----------------------------------/12-12-12-12-12-12-12-12-|
D|-----------------------------------/12-12-12-12-12-12-12-12-|
A|----------------/10-10-10-10-10-10--------------------------|
E|-33333333333333---------------------------------------------|

G|-12~---

Taken from The BassMasta -- http://www.tabs-database.com



Get this song at amazon.com      Ebay     Ringtones Ringtones  


Learn to play: Songwriting, Piano, Harmonica, Guitar
Also available at Muzikum: AFI - Now The World lyrics

Related Afi Bass Tabs

The Leaving Song Part 2 bass
3 12 bass
Crop Tub bass
Midnight Sun bass
Miss Murder (correct Timings) bass
Miss Murder 100% Correct bass
The Deathless Ones bass
Red Hat bass
Modern Epic bass
Sacrific Theory bass
The missing frame bass
Despair Factor bass
Keeping Out Of Direct Sunlight bass
Open Your Eyes bass
The Great Dissappointment bass
But Home Is Nowhere bass
What Ever I Do bass
Endlessly She Said bass
Who Knew bass
Days Of The Pheonix bass


Guitar Tabs









All tabs are property and copyright of their owners. All tabs provided for educational purposes only. Privacy Policy, DMCA