Afi

Narrative Of A Soul Against Souls Tabs



More from Afi

Afi Tabs
Afi Chords
Afi Bass
Afi Lyrics



tab by: ISAM
song order; Intro
verse
chorus
verse
chorus x2
solo
chorus x2
outro
I just left the verse in power chords but its not that hard to transpose it to barred minors.

intro
e|---0---3---10---8---3---5---3--------------|
B|---0---3---10---8---3---5---3--------------|
G|---2---4---11---9---3---6---3--------------|
D|---2---5---12--10---5---7---5---2-x2-------|
A|---2---5---12--10---5---7---5---2----------|
E|---0---3---10---8---3---5---3---0----------|
Chorus

e|---0---3---10---8---10---12---3---10---8---3---5---3-----|
B|---0---3---10---8---10---12---3---10---8---3---5---3-----|
G|---2---3---11---8---11---13---3---11---8---3---5---3-----|
D|---2---5---12--10---12---14---5---12--10---5---7---5---2-|
A|---2---5---12--10---12---14---5---12--10---5---7---5---2-|
E|---0---3---10---8---10---12---3---10---8---3---5---3---0-|

verse:
e|--------------------------------------------|
B|--------------------------------------------|
G|---4--------4--5----------------------------|
D|---4--5--7--4--5--7-------------------------|
A|---2--5--7--2--3--7-------------------------|
E|------3--5--------5-------------------------|

solo:
e|--0-0-0-0-0-0----7-8-7-----------------------------------------------------|
B|--5-7-8-5-7-8----8-8-8--8-10-8---------------------------------------------|
G|------------------------7-7--7---------------------------------------------|
D|---------------------------------------------------------------------------|
A|---------------------------------------------------------------------------|
E|---------------------------------------------------------------------------|

e|--0-0-0-0-0-0----7-10-8----------------------------------------------------|
B|--5-7-8-5-7-8----8-8--8--8-10-8--------------------------------------------|
G|-------------------------7-7--7--------------------------------------------|
D|---------------------------------------------------------------------------|
A|---------------------------------------------------------------------------|
E|---------------------------------------------------------------------------|
outro
e|--0-0-0-0-0-0-0-0-0-------|
B|--5-7-8-5-7-8-5-7-8--10---|
G|----------------------7---|
D|--------------------------|
A|--------------------------|
E|--------------------------|


Get this song at amazon.com      Ebay     Ringtones Ringtones  


Learn to play: Songwriting, Piano, Harmonica, Guitar
Also available at Muzikum: AFI - Narrative Of A Soul Against Souls lyrics

Related Afi Tabs

God Called In Sick Today tabs
Carcinogen Crush tabs
Cold Catharsis tabs
Fish Bowl tabs
Brownie Bottom Sundae tabs
Theory Of Revolution tabs
Half Empty Bottle tabs
Born In The Usa tabs
Salt For Your Wounds tabs
File 13 tabs
Three And A Half tabs
Porphyria tabs
Yurf Rendemein tabs
The Killing Lights tabs
Reivers Music tabs
Who Knew tabs
Catch A Hot One tabs
Keeping Out Of Direct Sunlight tabs
Morningstar tabs
Girls Not Grey Power tabs


Guitar Tabs









All tabs are property and copyright of their owners. All tabs provided for educational purposes only. Privacy Policy, DMCA