Afi

Morning Star Bass Tabs



More from Afi

Afi Tabs
Afi Chords
Afi Bass
Afi Lyrics



ARTIST: AFI
SONG: Morning star
TABED BY: Jams -


Standard tuning( E A D G )


INTRO AND VERSE 1
G|------------------------------------------------------------------------------------------------------------------------------------
D|-----------------------------------------------------------------0--2222222--0--4444444--0--6666666666666666
A|--77777777--6666666--0--444444444444444----------------------------------------------------------------------
E|------------------------------------------------------------------------------------------------------------------------------------

VERSE 2
G|------------------------------------------------------------------------------------------------------------------------------------
D|-----------------------------------------------------------------0--2222222--0--4444444---------------------------------
A|--77777777--6666666--0--444444444444444----------------------------------------------------------------------
E|-----------------------------------------------------------------------------------------------------0--9999999999999999

CHORUS
G|------------------------------------------------------------------------------------
D|------------------------------------------------------------------------------------
A|-----------2222--4444--7777--0000--2222--4444444444444444
E|--2222---------------------------------------------------------------------------

Taken from The BassMasta -- http://www.tabs-database.com



Get this song at amazon.com      Ebay     Ringtones Ringtones  


Learn to play: Songwriting, Piano, Harmonica, Guitar
Also available at Muzikum: AFI - Morning Star lyrics

Related Afi Bass Tabs

Endlessly She Said bass
Kung Fu Devil bass
The Leaving Song Pt. Ii bass
Wake Up Call bass
The Leaving Song Part Ii bass
The Leaving Song Part 2 bass
The New Patron Saints And Angels bass
Cereal wars bass
Ph Low bass
Aspirin Free bass
God Called In Sick Today bass
A Story At Three bass
Last Caress bass
This Time Imperfect bass
Let It Be Broke bass
Shatty Fatimas bass
But Home Is Nowhere bass
Rizzo In The Box(correct) bass
Rizzo In A Box bass
Perfect Fit bass


Guitar Tabs









All tabs are property and copyright of their owners. All tabs provided for educational purposes only. Privacy Policy, DMCA