Afi

Modern Epic Bass Tabs



More from Afi

Afi Tabs
Afi Chords
Afi Bass
Afi Lyrics



-------------------------------------------------------------------------------
MODERN EPIC - AFI
-------------------------------------------------------------------------------



Intro:
G |-------------------| |------------------|
D |-------------------| x2 |------------------|
A |-------5----5-3-7--| |-7-7-7-7-7-7-7-7--|
E |--5-3--------------| |------------------|

Verse:
G |-----------------------------------------------------------------------|
D |-----------------------------------------------------------------------|
A |----------5-5----------5-5-----------5-5-5-5-5-5-5-5-7-7-7-7-7-7-7-7---|
E |--5-5-5-5------5-5-5-5------5-5-5-5------------------------------------|

Chorus
G |--------------------------------------------------------------|
D |--------------------------------------------------------------|
A |-----------5-5-5-5-10-10-10-10-7-7-7-7-5-5-5-5-7-5-9-5--------|
E |--5-5-5-5-----------------------------------------------------|

Taken from The BassMasta -- http://www.tabs-database.com



Get this song at amazon.com      Ebay     Ringtones Ringtones  


Learn to play: Songwriting, Piano, Harmonica, Guitar
Also available at Muzikum: AFI - Modern Epic lyrics

Related Afi Bass Tabs

An Introduction bass
Days Of The Phoenix bass
The Leaving Song Part Ii bass
Wake Up Call bass
Battled bass
The Leaving Song Part 2 bass
Morning Star bass
Coin Return bass
Girls Not Grey bass
The Mother In Me bass
Half Empty Bottle bass
God Called In Sick Today bass
Total Immortal bass
Rolling Balls bass
Dream Of Waking bass
Miss Murder(complete) bass
Rizzo In The Box bass
Shatty Fatimas bass
Third Season bass
The Hanging Garden bass


Guitar Tabs









All tabs are property and copyright of their owners. All tabs provided for educational purposes only. Privacy Policy, DMCA