Afi

Miss Murder (correct! G D A D Tuning) Bass Tabs



More from Afi

Afi Tabs
Afi Chords
Afi Bass
Afi Lyrics




Tuning G D A D (Drop E to D)

~= slide
X= mute


INTRO: (0:00)
G|-----------------||
D|--6-----11--9--4-||
A|-----------------|| X2
D|-6--6~11---9--4--||



CHORUS: (0:07)
G|-----------------||
D|-----------------||
A|-----4-4-2-2-----|| X3
D|-6-6---------4-4-||

G|-------------------||
D|-------------------||
A|-------------------||
D|-22222222-11111111-||



(0:20)
G|-----------------||
D|-----------------||
A|-----4-4-2-2-----||
D|-6-6---------4-4-||



VERSE 1: (0:26)
G|-------------444444-----------------------------||
D|-------666666------666666-4444444444------------||
A|-------------------------------------6666666666-|| X2
D|-666666-----------------------------------------||



PRE-CHORUS: (0:40)
G|---------------------||
D|---------------------||
A|---------------------||
D|-6-6666666-6-6666666-||

G|---------------------||
D|---------------------||
A|---------------------||
D|-4-4444444-1-1111111-||

G|---------------------||
D|---------------------||
A|---------------------||
D|-6-6666666-6-6666666-||

G|-------------------------||
D|-------------------------||
A|-------------------------||
D|-4-4444444-1X-("Behind!")||



CHORUS (0:53)


(1:07)
G|-------------------------||
D|-------------------------||
A|-------------------------||
D|-66666666666-66666666666-||

G|-------------------------||
D|-------------------------||
A|-------------------------||
D|-44444444444-11111111111-||

(Repeat)



VERSE 2: (1:20)
G|-------------------------||
D|-------------------------||
A|-------------------------||
D|-6-6X--6-6X--6-6X--6-6X--||

G|----------------------------------------------||
D|----------------------------------------------||
A|------------44444444444-----------------------||
D|-66666666666-----------4444444444411111111111-||


PRE-CHORUS (1:34)

CHORUS (1:47)


BREAKDOWN: (2:07)
G|--------------------------------||
D|--------------------------------||
A|--------------------------------||
D|-9X9X--6-6-13-13-12-12-9-9-6X6X-||

G|----------||
D|----------||
A|----------||
D|-6-666666-||



(2:15)
G|------------------------------------------||
D|------------------------------------------||
A|------------------------------------------||
D|-6-6-13-13-12-12-9-9-6-6-13-13-12-12-9X9X-||

G|-------------------------------------||
D|-------------------------------------||
A|-------------------------------------||
D|-6-6-13-13-12-12-9-9-6X6X---66666666-||



(2:31) (This is where he starts yelling)
G|------------------------------------------||
D|------------------------------------------||
A|------------------------------------------||
D|-6-6-13-13-12-12-9-9-6-6-13-13-12-12-9X9X-||

G|-------------------------------------||
D|-------------------------------------||
A|-------------------------------------||
D|-6-6-13-13-12-12-9-9-6X6X---11111111-||


CHORUS X2 (2:55)


END ON:
G|------||
D|------||
A|------||
D|-6X6X-||



Get this song at amazon.com      Ebay     Ringtones Ringtones  


Learn to play: Songwriting, Piano, Harmonica, Guitar
More AFI lyrics available at Muzikum

Related Afi Bass Tabs

Kung Fu Devil bass
But Home Is Nowhere bass
Miss Murder (correct Bridge) bass
This Secret Ninja bass
Dont Make Me Ill bass
Miss Murder (i Hope This Is Good It Took Me Forever To Finish) bass
Porphyria Cutanea Tarda bass
No Poetic Device bass
Key Lime Pie bass
The Nephilim bass
The lost souls bass
Death Of Seasons bass
Highschool Football Hero bass
Ph Low bass
The Deathless Ones bass
37mm bass
God Called In Sick Today bass
Sts Hidden Song bass
Now The World bass
An Introduction bass


Guitar Tabs









All tabs are property and copyright of their owners. All tabs provided for educational purposes only. Privacy Policy, DMCA