Afi

Miss Murder Live Tabs



More from Afi

Afi Tabs
Afi Chords
Afi Bass
Afi Lyrics



AFI

Miss Murder Live



Tuning: Half step down eb,bb,gb,db,ab,eb



INTRO

|-----------------------------------|

|-----------------------------------|

|-----------------------------------|

|-----------------------------------|

|-----------------------------------|

|-----------------------------------|

|

|-----------------------------------|

|----7-------12-------10\----5------|

|-----------------------------------|

|--5----5/10-----8--------3-----3/--|



|--------------------------------------|

|--------------------------------------|

|-----5--9~----9-9-9-9-9-9-9-9-9-9-9-9-|

|-7---7--7~----7-7-7-7-7-7-7-7-7-7-7-7-|

|-0------------0-0-0-0-0-0-0-0-0-0-0-0-|

|--------------------------------------|

| |

|--------------------------------------|

|----7-------12-------10\----5---------|

|--------------------------------------|

|--5----5/10-----8--------3-----3/-----|



CHOURS:

|-------------------------------|-----------------------------|

|-------------------------------|-----------------------------|

|--------7--7-7-5--5-5----------|--------7--7-7-5--5-5-5------|

|-7--7-7-7--7-7-5--5-5-5--5-5-5-|-7--7-7-7--7-7-5--5-5-5-5-5-5|

|-7--7-7-5--5-5-3--3-3-5--5-5-5-|-7--7-7-5--5-5-3--3-3-5-5-5-5|

|-5--5-5-5--5-5-3--3-3-3--3-3-3-|-5--5-5-5--5-5-3--3-3-3-3-3-3|

| |

|-------------------------------|-----------------------------|

|-----7-----12-----10\-------5--|-----7-----12-----10\-------5|

|-------------------------------|-----------------------------|

|--5---5/10-----8------3-------3|--5---5/10-----8------3------|



|-------------------------------|----------------------------|

|-------------------------------|----------------------------|

|-5--5-5-7--7-7-5--5-5----------|----------------------------|

|-7--7-7-7--7-7-5--5-5-5--5-5-5-|-3-3-3-3-3-3-3-2-2-2-2-2-2--|

|-7--7-7-5--5-5-3--3-3-5--5-5-5-|-3-3-3-3-3-3-3-2-2-2-2-2-2--|

|-5--5-5-5--5-5-3--3-3-3--3-3-3-|-1-1-1-1-1-1-1-0-0-0-0-0-0--|

| |

|-------------------------------|----------------------------|

|-----7-----12-----10\-------5--|----------------------------|

|-------------------------------|-------3-3-5-5-7-7-7-7-7-7--|

|--5---5/10-----8------3-------3|1-1-1-1---------------------|





VERSE SOLO:

|------------------------------------------|

|------------------------------------------|

|-----9----9h10-10----9----9---------------|

|-7-7---10---------10---10---10-5-5--*-*-*-|

|------------------------------------------|

|------------------------------------------|

PM. . . . .



|------------------------------------------|

|------------------------------------------|

|-----9----9h10-10----9----9--------14~----|

|-7-7---10---------10---10---10-5----------|

|------------------------------------------|

|------------------------------------------|

PM. . . . .



VERSE: x2

|---------------------------5-5-5-5--5--------------|

|--------------7-7-7-7--7----------------7-7-7-7-7--|

|---------------------------------------------------|

|--5-5-5-5--5---------------------------------------|



|---------------------------------------------------|

|--5-5-5-5--5--5-5-5-5--5---------------------------|

|-------------------------7-7-7-7-7-7-7-7-7-7-7-7---|

|---------------------------------------------------|



PRE CHORUS

|-----------------| |-------------------------------|

|-----------------| |-------------------------------|

|-----------------| |-------------------------------|

|-7---7-7-7-7-7-7-|X2|-5---5-5-5-5-5--2--2-2-2-2-2-2-|

|-7---7-7-7-7-7-7-| |-5---5-5-5-5-5--2--2-2-2-2-2-2-|

|-5---5-5-5-5-5-5-| |-3---3-3-3-3-3--0--0-0-0-0-0-0-|

PM . . . . . . . . . . . . . . . . . |

|-----------------| |-------------------------------|

|-----------------| |-------------------------------|

|-----------------|X2|-------------------------------|

|-5---5-5-5-5-5-5-| |-3---3-3-3-3-3--0--0-0-0-0-0-0-|



|-----------------| |-------------------------------|

|-----------------| |-------------------------------|

|-----------------| |-------------------------------|

|-7---7-7-7-7-7-7-|X2|-5---5-5-5-5-5--2--2-2-2-2-2-2-|

|-7---7-7-7-7-7-7-| |-5---5-5-5-5-5--2--2-2-2-2-2-2-|

|-5---5-5-5-5-5-5-| |-3---3-3-3-3-3--0--0-0-0-0-0-0-|

PM . . . . . . . . . . . . . . . . . |

|-----------------| |-------------------------------|

|-----------------| |-------------------------------|

|-----------------|X2|-------------------------------|

|-5---5-5-5-5-5-5-| |-3---3-3-3-3-3--0--0-0-0-0-0-0-|



|-----------------| |------------------|

|-----------------| |------------------|

|-----------------| |------------------|

|-7---7-7-7-7-7-7-|X2|-5-------5----2---|

|-7---7-7-7-7-7-7-| |-5---5-5-5----2---|

|-5---5-5-5-5-5-5-| |-3---3-3-3----0---|

. . . . . . . . |

|-----------------| |------------------|

|-----------------| |------------------|

|-----------------|X2|-----555666---7---|

|-5---5-5-5-5-5-5-| |-3333-------------|



CHORUS:

|-------------------------------|-----------------------------|

|-------------------------------|-----------------------------|

|--------7--7-7-5--5-5----------|--------7--7-7-5--5-5-5------|

|-7--7-7-7--7-7-5--5-5-5--5-5-5-|-7--7-7-7--7-7-5--5-5-5-5-5-5|

|-7--7-7-5--5-5-3--3-3-5--5-5-5-|-7--7-7-5--5-5-3--3-3-5-5-5-5|

|-5--5-5-5--5-5-3--3-3-3--3-3-3-|-5--5-5-5--5-5-3--3-3-3-3-3-3|

| |

|-------------------------------|-----------------------------|

|-----7-----12-----10\-------5--|-----7-----12-----10\-------5|

|-------------------------------|-----------------------------|

|--5---5/10-----8------3-------3|--5---5/10-----8------3------|



|-------------------------------|----------------------------|

|-------------------------------|----------------------------|

|-5--5-5-7--7-7-5--5-5----------|----------------------------|

|-7--7-7-7--7-7-5--5-5-5--5-5-5-|-3-3-3-3-3-3-3-2-2-2-2-2-2--|

|-7--7-7-5--5-5-3--3-3-5--5-5-5-|-3-3-3-3-3-3-3-2-2-2-2-2-2--|

|-5--5-5-5--5-5-3--3-3-3--3-3-3-|-1-1-1-1-1-1-1-0-0-0-0-0-0--|

| |

|-------------------------------|----------------------------|

|-----7-----12-----10\-------5--|----------------------------|

|-------------------------------|-------3-3-5-5-7-7-7-7-7-7--|

|--5---5/10-----8------3-------3|1-1-1-1---------------------|



INTERLUDE

|---------------------------------------------------|

|---------------------------------------------------|

|-------------5-----------------------7-------------|

|-7-7-7-7-7-7---7-7-7-7-7-7-7-7-7-7-7---7-7-7-7-7---|

|---------------------------------------------------|

|---------------------------------------------------|

PM. . . . . . . . . . . . . . . . . . . . . . . |

|----------------------------------------7-7-7-7-7--|

|--------------7-7-7-7-7-7--9-9-9-9-9-9-------------|

|---------------------------------------------------|

|-5-5-5-5-5-5---------------------------------------|



|------------------------------------|-----------------------|

|------------------------------------|-----------------------|

|-----------------------4------------|-----------9-----------|

|-7-7-7-7-7/5-5-5-5-5-5---5-5-5-5-5--|-----------------------|

|------------------------------------|-7-7-7-7-7---7-7-7-7-7-|

|------------------------------------|-----------------------|

PM . . . . . . . . . . . . . . . . . . . . . . . . . .|

|------------------------------------------------------------|

|-9-9-9-9-9-9-9-9-9-9-9-9--6-6-6-6-6-6-6-6-6-6-6-6-----------|

|------------------------------------------------------------|

|--------------------------------------------------5-5-5-5-5-|



Start coming out of palm mute.

|---------------------------------------------------|

|---------------------------------------------------|

|-------------5-----------------------7-------------|

|-7-7-7-7-7-7---7-7-7-7-7-7-7-7-7-7-7---7-7-7-7-7---|

|---------------------------------------------------|

|---------------------------------------------------|

PM. . . . . . . . . . . . . . . . . . . . . . . |

|----------------------------------------7-7-7-7-7--|

|--------------7-7-7-7-7-7--9-9-9-9-9-9-------------|

|---------------------------------------------------|

|-5-5-5-5-5-5---------------------------------------|



|------------------------------------|----------------------|

|------------------------------------|----------------------|

|-----------------------4------------|-9-9-9-9-9-9-9-9-9-9--|

|-7-7-7-7-7/5-5-5-5-5-5---5-5-5-5-5--|-X-X-X-X-X-X-X-X-X-X--|

|------------------------------------|-7-7-7-7-7-7-7-7-7-7--|

|------------------------------------|----------------------|

|

|--7-7-7-7-7-7----------------------------------------------|

|--------------9--9--9--9--9--9--9--9--9--9--6-6-6-6-4-5-6--|

|-----------------------------------------------------------|

|-----------------------------------------------------------|



VERSE:

|-----|

|-7-7-|

|-0-0-|

|-----| X4



BRIDGE PART 1:

This part doesn’t sound like the album recording, its an octave lower.

|---------------------------------------------------------------

|---------------------------------------------------------------

|--9~~v--—----------10~~v-------------—7~~v------1~~v-----------

|---------------------------------------------------------------

|---------------------------------------------------------------

|---------------------------------------------------------------

|

|---------------------------------------------------------------

|---------------------------------------------------------------

|-------------------------5-5-5--5-5-5--------------------------

|555555555555-777-7-7-7----------------7-7-7--7-7-7--7-7-7--7-7-



|-------------------------------------|

|-------------------------------------|

|-(1~~)-------------------------------|

|-------------------------------------|

|-------------------------------------|

|-------------------------------------|

| |

|-------------------------------------|

|-------------------------------------|

|11-11-11--11-11-11--11-11-11--11\----|

|-------------------------------------|



PRE CHORUS

|-----------------| |-------------------------------|

|-----------------| |-------------------------------|

|-----------------| |-------------------------------|

|-7---7-7-7-7-7-7-|X2|-5---5-5-5-5-5--2--2-2-2-2-2-2-|

|-7---7-7-7-7-7-7-| |-5---5-5-5-5-5--2--2-2-2-2-2-2-|

|-5---5-5-5-5-5-5-| |-3---3-3-3-3-3--0--0-0-0-0-0-0-|

PM . . . . . . . . . . . . . . . . . |

|-----------------| |-------------------------------|

|-----------------| |-------------------------------|

|-----------------|X2|-------------------------------|

|-5---5-5-5-5-5-5-| |-3---3-3-3-3-3--0--0-0-0-0-0-0-|



|-----------------| |-------------------------------|

|-----------------| |-------------------------------|

|-----------------| |-------------------------------|

|-7---7-7-7-7-7-7-|X2|-5---5-5-5-5-5--2--2-2-2-2-2-2-|

|-7---7-7-7-7-7-7-| |-5---5-5-5-5-5--2--2-2-2-2-2-2-|

|-5---5-5-5-5-5-5-| |-3---3-3-3-3-3--0--0-0-0-0-0-0-|

PM . . . . . . . . . . . . . . . . . |

|-----------------| |-------------------------------|

|-----------------| |-------------------------------|

|-----------------|X2|-------------------------------|

|-5---5-5-5-5-5-5-| |-3---3-3-3-3-3--0--0-0-0-0-0-0-|



|-----------------| |------------------|

|-----------------| |------------------|

|-----------------| |------------------|

|-7---7-7-7-7-7-7-|X2|-5-------5----2---|

|-7---7-7-7-7-7-7-| |-5---5-5-5----2---|

|-5---5-5-5-5-5-5-| |-3---3-3-3----0---|

. . . . . . . . |

|-----------------| |------------------|

|-----------------| |------------------|

|-----------------|X2|-----555666---7---|

|-5---5-5-5-5-5-5-| |-3333-------------|



CHORUS:

|-------------------------------|-----------------------------|

|-------------------------------|-----------------------------|

|--------7--7-7-5--5-5----------|--------7--7-7-5--5-5-5------|

|-7--7-7-7--7-7-5--5-5-5--5-5-5-|-7--7-7-7--7-7-5--5-5-5-5-5-5|

|-7--7-7-5--5-5-3--3-3-5--5-5-5-|-7--7-7-5--5-5-3--3-3-5-5-5-5|

|-5--5-5-5--5-5-3--3-3-3--3-3-3-|-5--5-5-5--5-5-3--3-3-3-3-3-3|

| |

|-------------------------------|-----------------------------|

|-----7-----12-----10\-------5--|-----7-----12-----10\-------5|

|-------------------------------|-----------------------------|

|--5---5/10-----8------3-------3|--5---5/10-----8------3------|



|-------------------------------|----------------------------|

|-------------------------------|----------------------------|

|-5--5-5-7--7-7-5--5-5----------|----------------------------|

|-7--7-7-7--7-7-5--5-5-5--5-5-5-|-3-3-3-3-3-3-3-2-2-2-2-2-2--|

|-7--7-7-5--5-5-3--3-3-5--5-5-5-|-3-3-3-3-3-3-3-2-2-2-2-2-2--|

|-5--5-5-5--5-5-3--3-3-3--3-3-3-|-1-1-1-1-1-1-1-0-0-0-0-0-0--|

| |

|-------------------------------|----------------------------|

|-----7-----12-----10\-------5--|----------------------------|

|-------------------------------|-------3-3-5-5-7-7-7-7-7-7--|

|--5---5/10-----8------3-------3|1-1-1-1---------------------|



BRIDGE (CLEAN GUITAR, LOW VOLUME)

|-------------------------------------------------------------|

|-------------------------------------------------------------|

|---------9-------8--------------------------9----------8-----|

|---7-------7-------7--------------7-------7--------7---------|

|-0---0-0-----0-0-----0---10-10--0---0-0-------0-0--------0---|

|-----------------------0--8--8-----------------------------0-|

| |

|-------------------------------------------------------------|

|------------------------------------------7--7-6-6-----------|

|-------------------------------------------------------------|

|5~~~~~~~~~~~~~~~~~~~~~~~~-8-8---5---5-5--------------8-8-----|



|-------|------------------------|

|-------|------------------------|

|-------|-x-x-x-x-x-9-9-9-9-9-9--|

|-10-10-|-x-x-x-x-x-7-7-7-7-7-7--| x2, second time on x079xx

|-10-10-|-x-x-x-x-x-0-0-0-0-0-0--| distortion kicks in

|-8--8--|------------------------|

| |

|--------------------------------|

|--------------------------------|

|--------------------------------|

|-8-8----------------------------|



Then it looks like Jade switches places on the neck and goes to:

|-------------------------------------------------------------|

|---------5-------4----------------------5----------4---------|

|---2-------2-------2-----5-5-5---2----------2----------2-----|

|-------------------------5-5-5-------------------------------|

|-0---0-0-----0-0-----0---3-3-3-0---0-0--------0-0--------0---|

|-----------------------0-----------------------------------0-|

| |

|-------------------------------------------------------------|

|----------------7--7-6-6-----------------7--7-6-6------------|

|-------------------------------------------------------------|

|-8-8---5---5-5-----------8-8----5---5-5----------------------|



|-----|

|-----|

|-5-5-|

|-5-5-|

|-3-3-|

|-----|

|

|-----|

|-----|

|-----|

|-8-8-|



|------------------------------------------------------------|

|---------5-------4---------------------5----------4---------|

|---2-------2-------2-----5-5----2----------2----------2-----|

|-------------------------5-5--------------------------------|

|-0---0-0-----0-0-----0---3-3--0---0-0--------0-0--------0---|

|-----------------------0----------------------------------0-|

| |

|------------------------------------------------------------|

|----------------7--7-6-6----------------7--7-6-6------------|

|------------------------------------------------------------|

|-8-8---5---5-5-----------8-8---5---5-5----------------------|



|-----|---------------------------------------|

|-----|---------------------------------------|

|-9-9-|---------------------------------------|

|-7-7-|-2-2-2-2-2-2-2-2-2-2-2-2-2-2-2-2-2-2-2-|

|-0-0-|-2-2-2-2-2-2-2-2-2-2-2-2-2-2-2-2-2-2-2-|

|-----|-0-0-0-0-0-0-0-0-0-0-0-0-0-0-0-0-0-0-0-|



This solo is faintly heard, on low volme:

|------------------------------------------|

|------------------------------------------|

|-----9----9h10-10----9----9---------------|

|-7-7---10---------10---10---10-5-5--*-*-*-|

|------------------------------------------|

|------------------------------------------|



CHORUS:

|-------------------------------|-----------------------------|

|-------------------------------|-----------------------------|

|--------7--7-7-5--5-5----------|--------7--7-7-5--5-5-5------|

|-7--7-7-7--7-7-5--5-5-5--5-5-5-|-7--7-7-7--7-7-5--5-5-5-5-5-5|

|-7--7-7-5--5-5-3--3-3-5--5-5-5-|-7--7-7-5--5-5-3--3-3-5-5-5-5|

|-5--5-5-5--5-5-3--3-3-3--3-3-3-|-5--5-5-5--5-5-3--3-3-3-3-3-3|

| |

|-------------------------------|-----------------------------|

|-----7-----12-----10\-------5--|-----7-----12-----10\-------5|

|-------------------------------|-----------------------------|

|--5---5/10-----8------3-------3|--5---5/10-----8------3------|



|-------------------------------|----------------------------|

|-------------------------------|----------------------------|

|-5--5-5-7--7-7-5--5-5----------|----------------------------|

|-7--7-7-7--7-7-5--5-5-5--5-5-5-|-3-3-3-3-3-3-3-2-2-2-2-2-2--|

|-7--7-7-5--5-5-3--3-3-5--5-5-5-|-3-3-3-3-3-3-3-2-2-2-2-2-2--|

|-5--5-5-5--5-5-3--3-3-3--3-3-3-|-1-1-1-1-1-1-1-0-0-0-0-0-0--|

| |

|-------------------------------|----------------------------|

|-----7-----12-----10\-------5--|----------------------------|

|-------------------------------|-------3-3-5-5-7-7-7-7-7-7--|

|--5---5/10-----8------3-------3|1-1-1-1---------------------|



OUTRO CHORUS

|------------------------------------|

|------------------------------------|

|--14-14--16-16--17-17--12-12--13-13-|

|---x-----x--x---x--x---x--x---x--x--|

|--12-12--14-14--15-15--10-10--11-11-|

|------------------------------------|

| |

|------------------------------------|

|-----7-----12------10\--------5-----|

|------------------------------------|

|--5---5/10------8-------3----------3|



|------------------------------|

|------------------------------|

|--14-14--16-16--19-19--17-17--|

|---x-----x--x---x--x---x--x---|

|--12-12--14-14--17-17--15-15--|

|------------------------------|

| |

|------------------------------|

|-----7-----12-----10\-------5-|

|------------------------------|

|--5---5/10-----8------3-------|













|-------------------------------------|

|-------------------------------------|

|--14-14--16-16--17-17--12-12--13-13--|

|---x-----x--x---x--x---x--x---x--x---|

|--12-12--14-14--15-15--10-10--11-11--|

|-------------------------------------|

| |

|-------------------------------------|

|-----7-----12-------10\--------5-----|

|-------------------------------------|

|--5---5/10------8-------3-------3----|



|---------------------------------|

|---------------------------------|

|--------------------------9----9-|

|-3-3-3-3-3-3-2-2-2-2-2-2--7----7-|

|-3-3-3-3-3-3-2-2-2-2-2-2--0----0-|

|-1-1-1-1-1-1-0-0-0-0-0-0---------|

| | |

|---------------------------------|

|---------------------------------|

|-------3-3-5-5-7-7-7-7-7---------|

|1-1-1-1--------------------------|



Lyrics:

{CHORUS}

Hey Miss Murder can I?

Hey Miss Murder can I?

Make beauty stay if I,

Take my life?

Whoa oh oh



{VERSE}

With just a look they shook,

And heavens bowed before him,

Simply a look can break your heart.

The stars that pierced the sky,

He left them all behind,

We’re left to wonder why.

He left us all behind.



{CHORUS}

Hey Miss Murder can I?

Hey Miss Murder can I?

Make beauty stay if I,

Take my life?

Whoa oh oh

(Ohh)



{VERSE}

Dreams of his crash won’t pass,

Oh how they all adored him,

Beauty will last when spiraled down.

The stars that mystify,

He left them all behind.

And how his children cried,

He left us all behind.



{CHORUS}

Hey Miss Murder can I?

Hey Miss Murder can I?

Make beauty stay if I,

Take my life?

Whoa oh oh



{BRIDGE}

What's the hook, the twist,

Within this verbose mystery?

I would gladly bet my life upon it.

That the ghost you love, your ray of light,

Will fizzle out without hope.



We're the empty set just floating through, wrapped in skin.

Ever searching for what we were promised.

Reaching for that golden ring we'd never let go,

Who would ever let us put our filthy hands upon it?

Yeah!



{CHORUS}

Hey Miss Murder can I?

Hey Miss Murder can I?

Make beauty stay if I,

Take my life?

Whoa oh oh



{CHORUS}

Hey Miss Murder can I?

Hey Miss Murder can I?

Make beauty stay if I,

Take my life?

Whoa oh oh

Added by tabs-database.com and our distinguished partners
Get this song at amazon.com      Ebay     Ringtones Ringtones  


Learn to play: Songwriting, Piano, Harmonica, Guitar
More AFI lyrics available at Muzikum

Related Afi Tabs

Coin Return tabs
The Killing Lights(intro And Verses) tabs
Three Reasons tabs
Perfect Fit tabs
Kill Caustic tabs
Bleed Black tabs
The Mother In Me Bass tabs
Prelude 1221 tabs
At A Glance Bass tabs
Cruise Control tabs
Porphyria Cutanea Tarda tabs
The Lost Souls (perfect) tabs
Three Seconds Notice tabs
The Leaving Song Part Two tabs
Values Here tabs
Prayer Position Intro tabs
Hearts Frozen Soil tabs
The Days Of The Phoenix tabs
The Despair Factor tabs
Halloween tabs


Guitar Tabs









All tabs are property and copyright of their owners. All tabs provided for educational purposes only. Privacy Policy, DMCA