Afi

Midnight Sun Bass Tabs



More from Afi

Afi Tabs
Afi Chords
Afi Bass
Afi Lyrics



Artist: AFI
Song: Midnight Sun
Album: Black Sails in the Sunset
Bassist: Hunter
Tuning: Standard
Interpretted by: Spidey255

This is another song that Hunter tabbed out but can be hard to interpret. Here's some
helo for ya.

Apparently you're supposed to detune all your strings here and let'em ring.
If you can tune back in about 2 seconds then do so, but I really don't think anyone
has that special ability so you might as well skin this part.
Intro
G|-0-|
D|-0-|
A|-0-|
E|-0-|

Verse
G|--------------------------------------------------------------------------|
D|--------------------------------------------------------------------------|
A|-77777-777-5555-7777------------------------------10-10-10-10-10-10-10-10-|
E|---------------------6666-88888-888-7777-99999999-------------------------|

Chorus
G|-------------------------------------|
D|-------------------------------------|
A|----------33333333-00000000-22222222-|
E|-00000000----------------------------|

Bridge (2x)
G|------------------------------------------------------------------------|
D|------------------------------------------------------------------------|
A|-77-555-7777-555-77777777-77777777--------------------------10-10-10-10-|
E|-----------------------------------88-666-8888-777-99999999-------------|

Ending (Hunter didn't tab this, i always play it at the end though)
G|------------|
D|------------|repeat until
A|------7-----| it ends
E|-0000---000-|

Taken from The BassMasta -- http://www.tabs-database.com



Get this song at amazon.com      Ebay     Ringtones Ringtones  


Learn to play: Songwriting, Piano, Harmonica, Guitar
Also available at Muzikum: AFI - Midnight Sun lyrics

Related Afi Bass Tabs

Half Empty Bottle bass
37mm bass
Total Immortal bass
The Leaving Song bass
Your Name Here bass
Silver And Cold bass
Soap Box Derby bass
The Leaving Song Part 2 bass
Ph Low bass
Coin Return bass
Take The Test bass
Sacrifice Theory bass
Hidden Track To Sing The Sorrow bass
Six To Eight bass
Rizzo In The Box bass
But Home Is Nowhere bass
Days Of The Phoenix bass
Aspirin Free bass
Third Season bass
Ny Quil bass


Guitar Tabs









All tabs are property and copyright of their owners. All tabs provided for educational purposes only. Privacy Policy, DMCA