Afi

Man In A Suitcase Bass Tabs



More from Afi

Afi Tabs
Afi Chords
Afi Bass
Afi Lyrics



-------------------------------------------------------------------------------
MAN IN A SUITCASE - A.F.I.
-------------------------------------------------------------------------------



Verse
5x
G---------------------------------------------------------|
D--3-3-3-5---------------------3-3-3-5--------------------|
A----------3--0-0-0-0-1-1-3-3----------3--0-0-0-0-1-1-----|
E-----------------------------------------------------3-3-|

Chorus
2x
G----------------------------------------------------------------|
D--3--------------------------3-3--3-----------------------------|
A--------3-3----3-5-5-5-3-5-5------------3-3---3-5-5-5-3-5-5-3-3-|
E----3-5------5----------------------3-5-----5-------------------|

Verse2
2x
G---------------------------------------------------------|
D--3-3-3-5---------------------3-3-3-5--------------------|
A----------3--0-0-0-0-1-1--------------3--0-0-0-0-1-1-3-3-|
E-------------------------3-3-----------------------------|

repeat
Chorus
repeat Verse 2x

Verse3
2x
G---------------------------------------------------------|
D--5-5-5-7---------------------5-5-5-7--------------------|
A----------5--2-2-2-2-3-3-5-5----------5--2-2-2-2-3-3-0-0-|
E---------------------------------------------------------|

Chorus2
7x
G---------------------------------------------------------------|
D--5-------------------------5-5--5-----------------------------|
A--------5-5---5-7-7-7-5-7-7------------5-5---5-7-7-7-5-7-7-5-5-|
E----5-7-----7----------------------5-7-----7-------------------|

End
solo (really ***ing fast(?))
G---------------------------------------------------------------|
D--5-------------------------5-5--5---5-------------------------|
A--------5-5---5-7-7-7-5-7-7--------7---------5-7-5-----------5-|
E----5-7-----7--------------------------3-5-7-------7-5-3-5-7---|

G----------------------5---5-7-7-7-------------------------------------|
D--------------5---5-7---7----------5-7-5---5---------------------5----|
A------5---5-7---7------------------------7---7-5-----------5-7-5------|
E--5-7---7----------------------------------------7-5-3-5-7----------3-|

Have
fun!

===============================================================================

Taken from The BassMasta -- http://www.tabs-database.com



Get this song at amazon.com      Ebay     Ringtones Ringtones  


Learn to play: Songwriting, Piano, Harmonica, Guitar
Also available at Muzikum: AFI - Man In A Suitcase lyrics

Related Afi Bass Tabs

Love Like Winter bass
An Introduction bass
Sts Hidden Song bass
Ph Low bass
Consult My Lover bass
File13 bass
The Great Dissapointment bass
This Time Imperfect bass
Self Pity bass
Despair Factor bass
Charles Atlas bass
A Winters Tale bass
3 12 bass
Your Name Here bass
Ny Quil bass
The Boy Who Destroyed The World bass
Fall Children bass
Miss Murder (correct! G D A D Tuning) bass
Kill Caustic bass
At A Glance bass


Guitar Tabs









All tabs are property and copyright of their owners. All tabs provided for educational purposes only. Privacy Policy, DMCA