Afi

Last Caress Bass Tabs



More from Afi

Afi Tabs
Afi Chords
Afi Bass
Afi Lyrics



Song: LAST CARESS
Artist: A fire inside
Bassist: Hunter
Tabber: hack6969@hotmail.com

This misfits cover was also made by NOFX and metallica, I think
it is perfect except the second part of the chorus (I'm not sure of that)
This is my first tab so don't be cruel :'0
Plz rate it and correct if you find it wrong, thx.

intro
G-----------------------------------------|
D-----------3--5----------3--5--3---------|
A---3-------------3-------------------5---|
E-----------------------------------------|

verse x4
G---------------------------------|---------------------------|
D--------------------------3--5---|--3-(x8)-------------------|
A---3-3-3-3-3-3-3-3-3-3-3---------|----------5-(x8)--3-(x15)--|
E---------------------------------|---------------------------|

chorus
G-----------------------------------------------|
D---3-(x8)----------2--------------------5-(x8)-|
A-----------5-(x8)----5----------3-(x8)---------|
E------------------------5-(x8)-----------------|

verse2 x2
G--------------------------------|
D------------------3-3-3---------|
A---3-3-3-3-3-3-3--------5-5-5-5-|
E--------------------------------|

verse x2
G---------------------------------|---------------------------|
D--------------------------3--5---|--3-(x8)-------------------|
A---3-3-3-3-3-3-3-3-3-3-3---------|----------5-(x8)--3-(x15)--|
E---------------------------------|---------------------------|

chorus

verse2 x2
G--------------------------------|
D------------------3-3-3---------|
A---3-3-3-3-3-3-3--------5-5-5-5-|
E--------------------------------|

verse x2
G---------------------------------|---------------------------|
D--------------------------3--5---|--3-(x8)-------------------|
A---3-3-3-3-3-3-3-3-3-3-3---------|----------5-(x8)--3-(x15)--|
E---------------------------------|---------------------------|

chorus (keep last note sounding)

repeat verse2 till the end (8 times) and end on

G---|
D---|
A-3-|
E---|

Taken from The BassMasta -- http://www.tabs-database.com



Get this song at amazon.com      Ebay     Ringtones Ringtones  


Learn to play: Songwriting, Piano, Harmonica, Guitar
Also available at Muzikum: AFI - Last Caress lyrics

Related Afi Bass Tabs

Brownie Bottom Sundae bass
Killing Lights bass
Halloween bass
This Time Imparfect bass
Miss Murder 100% Correct bass
Rizzo In The Box bass
Death Of Seasons bass
Love Like Winter bass
Exsanguination bass
Ny Quil bass
Cereal wars bass
Dont Make Me Ill bass
Girls Not Grey bass
Hidden Track To Sing The Sorrow bass
Miss Murder (i Hope This Is Good It Took Me Forever To Finish) bass
Modern Epic bass
Fall Children bass
The missing frame bass
Smile bass
Hearts Frozen, Soil Sod Once More bass


Guitar Tabs









All tabs are property and copyright of their owners. All tabs provided for educational purposes only. Privacy Policy, DMCA