Afi

Killing Lights Bass Tabs



More from Afi

Afi Tabs
Afi Chords
Afi Bass
Afi Lyrics

this is my version of killing lights by AFI, hope it helps.

intro bass in at 8seconds.
G:1-1-1-1-4-6/8

verse- NOT EXACT AMOUNT OF TIMES TO PLAY NOTE, JUST PLAY TO THE RYTHYM OF THE SONG.

E:----------------------------------4-4-4-4-4-4-4-4-4-4-4-4-4-4-4-4-|
A:2-2-2-2-2-2-2-2-2-4-4-4-4-4-4-4-4---------------------------------|
D:------------------------------------------------------------------|
G:------------------------------------------------------------------|
NOT SURE HOW MANY TIMES PLAYED.

CHORUS
E:4-4-4-4-2-2-2-2--------0-0-0-0-4-4-4-4-2-2-2-2-0-0-0-0-0-0-0-0-|
A:----------------2-2-2-2----------------------------------------|
D:---------------------------------------------------------------|
G:---------------------------------------------------------------|
PLAY CHORUS ONCE

VERSE
E:----------------------------------4-4-4-4-4-4-4-4-4-4-4-4-4-4-4-4-|
A:2-2-2-2-2-2-2-2-2-4-4-4-4-4-4-4-4---------------------------------|
D:------------------------------------------------------------------|
G:------------------------------------------------------------------|
PLAY IN RYTHYM AGAIN.

CHORUS
E:4-4-4-4-2-2-2-2--------0-0-0-0-4-4-4-4-2-2-2-2-0-0-0-0-0-0-0-0-|
A:----------------2-2-2-2----------------------------------------|
D:---------------------------------------------------------------|
G:---------------------------------------------------------------|
PLAY CHORUS TWICE.

BRIDGE SORTA THING.
E:4-4-4-4-----------------|
A:--------5-5-5-5-2-2-2-2-|
KEEP REPEATING UNTIL THE GUITAR BREAKS INTO A SOLO SORTA THING.

THEN PLAY
A:7------9------11-----11------|
D:--9--9--11--11--13-13--13-13-|
G:----9-----11------13-----13--|
TRY AND PLAY THAT TWICE.

THEN PLAY
CHORUS
E:4-4-4-4-2-2-2-2--------0-0-0-0-4-4-4-4-2-2-2-2-0-0-0-0-0-0-0-0-|
A:----------------2-2-2-2----------------------------------------|
D:---------------------------------------------------------------|
G:---------------------------------------------------------------|

UNTIL THE END OF THE SONG.

WELL HOPE YOU ENJOY THAT AND HOPE IT HELPS, IS QUITE FUN TO PLAY ALONG TO.



Get this song at amazon.com      Ebay     Ringtones Ringtones  


Learn to play: Songwriting, Piano, Harmonica, Guitar
More AFI lyrics available at Muzikum

Related Afi Bass Tabs

Open Your Eyes bass
Take The Test bass
Now The World bass
Totalimmortal bass
Rizzo In The Box bass
The Nephilim bass
Rabbits Are Roadkill On Rt. 37 bass
Of Seasons bass
Narrative Of Soul Against Soul bass
This Secret Ninja bass
Perfect Fit bass
Rizzo In A Box bass
The Greatest Dissapointment bass
This Time Imparfect bass
Days Of The Phoenix bass
The lost souls bass
Catch A Hot One bass
Your Name Here bass
This Celluloid Dream bass
The New Patron Saints And Angels bass


Guitar Tabs









All tabs are property and copyright of their owners. All tabs provided for educational purposes only. Privacy Policy, DMCA