Afi

High School Football Hero Bass Tabs



More from Afi

Afi Tabs
Afi Chords
Afi Bass
Afi Lyrics



Artist: Afi
Song: High School Football Hero
Tabbed by: Speedy

*This is what I play when the band I am in covers this*

Verse:
G|------------------------------|
D|------------------------------|
A|---------5-3--------------3-0-|
E|-5-5-5-5-----3--5-5-5-5-3-----|

Chorus
G|-------------------------------------------------------------|
D|-------------------------------------------------------------|
A|-----------5-5-5-5-5-----------5-5-5-5-5-----------5-5-5-5-5-|
E|-5-5-5-5-5-----------5-5-5-5-5-----------3-3-3-3-3-----------|

Chorus cont.
G|-------------------------------------------------------------|
D|-------------------------------------------------------------|
A|-----------5-5-5-5-5-----------5-5-5-5-5-----------7-7-7-7-7-|
E|-5-5-5-5-5-----------3-3-3-3-3-----------5-5-5-5-5-----------|

Taken from The BassMasta -- http://www.tabs-database.com



Get this song at amazon.com      Ebay     Ringtones Ringtones  


Learn to play: Songwriting, Piano, Harmonica, Guitar
Also available at Muzikum: AFI - High School Football Hero lyrics

Related Afi Bass Tabs

File13 bass
Leaving Song Part 2 bass
Cruise Control bass
High School Football Hero bass
Hanging Garden bass
Wake Up Call bass
Let It Be Broke bass
File Thirteen bass
6 To 8 bass
Six To Eight bass
The Prayer Position bass
Half Empty Bottle bass
The Leaving Song 2 bass
Key Lime Pie bass
Self Pity bass
Porphyria Cutanea Tarda bass
Cereal wars bass
Aspirin Free bass
Holloween bass
The Nephilim bass


Guitar Tabs









All tabs are property and copyright of their owners. All tabs provided for educational purposes only. Privacy Policy, DMCA