Afi

God Called In Sick Today Bass Tabs



More from Afi

Afi Tabs
Afi Chords
Afi Bass
Afi Lyrics



Artist: AFI
Album: Black Sails in the Sunset
Song: God Called In Sick Today
Bassist: Hunter
Tabbed by: Krunchy


This is a great song to learn, but confusing at first. Make sure you listen to it to get
the timing correct. Enjoy!


. = Pause
~ = Sustain
= Slide
> = Strum

Intro (Right Before Jade Palm Mutes):
G|-----12~----|
D|------------|
A|-(Harmonic)-|
E|------------|


Chorus:
G|----------------------------------------------------------------------------|
D|------------------------3-5-3-----------------------------3-5---------------|
A|--------------------3-5-------666666-5------------------------3-555555-6~---|
E|-6666-88-6-5-333333--------------------6666-88-6-5-333333-------------------|


Verse:
G|--------------------------------------------------------------------------------------------------------|
D|--------------12-10-8--------------------------------------------12------88-77------------------10-8-77-|
A|-/10-10-10-10---------8888-10-8---------8-10-12-12-6-8-6-8888-10----8888-------88----8-10-12-66---------|
E|--------------------------------8888-10-------------------------------------------10--------------------|

G|---------------------------------------------------------------|
D|-------------8----8-10------7---7-8----------------------------|
A|-10-10-10-10---10------8888---8-----------------8----8-10-6666-|
E|------------------------------------10-10-10-10---10-----------|

G|---------------------------------------------------------------|
D|-10-8-77-------------8----8-10------7---7-8---------7----------|
A|---------10-10-10-10---10------8888---8--------8-10---6666-5---|
E|--------------------------------------------10---------------8-|


Chorus:
G|-------------------------------------------------------------------------|
D|------------------------3-5-3-----------------------------3-5------------|
A|--------------------3-5-------666666-5------------------------3-555555-6-|
E|-6666-88-6-5-333333--------------------6666-88-6-5-333333----------------|

G|-----------------------------------------------------------------------|
D|------------------------3-5-3-----------------------------3-5----------|
A|--------------------3-5-------666666-5------------------------3-555555-|
E|-6666-88-6-5-333333--------------------6666-88-6-5-333333--------------|


Interlude:
G|------------------------------------------------------------------------------------------------------------------------|
D|------------------------------------------------------------------------------------------------------------------------|
A|-------------12-10-8------------------3-5/7------88/10-8-------------8-10/12------7------7-8-7------3-5-77------10-8-77-|
E|-10-10-10-10---------8888-10-8-3333-5-------6666---------10-10-10-10---------8888---8888-------5555--------6666---------|

G|-----------------------------------------------------------------------------------------------------------------|
D|------------------------------------10----10-12-10-------------------------------------------------------------8-|
A|-------------8-10-12------7-8-10/12----12----------12-13-12-10-8-77------------------------------------3-5-7-8---|
E|-10-10-10-10---------8888-------------------------------------------88/10-8-10-10/12-8-10/12-8888-5555-----------|

G|----------------------------------------|
D|----------------------------------------|
A|------------------5-6-8--------66666666-|
E|-1-3~---1111-6~---------1-3~------------|


Final Chorus:
G|----------------------------------------------------------------------------|
D|------------------------3-5-3-----------------------------3-5---------------|
A|--------------------3-5-------666666-5------------------------3-555555-6~---|
E|-6666-88-6-5-333333--------------------6666-88-6-5-333333-------------------|

G|----------------------------------------------------------------------------------|
D|------------------------3-5-3-----------------------------3-5---------------------|
A|--------------------3-5-------666666-5------------------------3-555555-6~.---5~---|
E|-6666-88-6-5-333333--------------------6666-88-6-5-333333-------------------------|


Best. Song. Ever.

Taken from The BassMasta -- http://www.tabs-database.com



Get this song at amazon.com      Ebay     Ringtones Ringtones  


Learn to play: Songwriting, Piano, Harmonica, Guitar
Also available at Muzikum: AFI - God Called In Sick Today lyrics

Related Afi Bass Tabs

Who Said You Could Touch Me? bass
A Story At Three bass
6 To 8 bass
Ever And A Day bass
Key Lime Pie bass
Smile bass
Reivers Music bass
Modern Epic bass
The Nephilim bass
Rabbits Are Roadkill On Rt. 37 bass
Kung Fu Devil bass
Cult Status bass
The New Patron Saints And Angels bass
Battled bass
The Boy Who Destroyed The World bass
He Who Laughs Last bass
The Leaving Song Part Ii bass
Miss Murder (correct Timings) bass
Morning Star bass
Yurf Rendenmein bass


Guitar Tabs









All tabs are property and copyright of their owners. All tabs provided for educational purposes only. Privacy Policy, DMCA