Afi

Girls Not Gray Bass Tabs



More from Afi

Afi Tabs
Afi Chords
Afi Bass
Afi Lyrics



Artist: AFI
Song: Girls Not Grey
Album: Sing The Sorrow
Tuning: D#G#C#F#

This is my first bass tab. I tried tabbing the guitar part but it was really
hard and all that stood out was the awsome bass line so here it is
(i used a bass to tab by the way)

Intro
-------------------------------------------------------------
--------------------------------------------------------9-10-
--5-7-8-8-7-5---5-------------5-7-8-8-7-8-10-7-10-12-12------
5-------------3---3-5-5-7-8-5--------------------------------

---------------------------------------------------
---------------------------------------------------
--5-7-8-8-7-5---5-------------5-7-8-8-7-5----------
5-------------3---3-5-5-7-8-5-------------8-7-3-5-


Verse
---------------------------------------
---------------------------------------
0-0-0-0-12-0-12--12-0-0-0-0-12-0-10-12-
---------------------------------------

---------------------------------------
---------------------------------------
0-0-0-0-12-0-12--12-0-0-0-0-12-0-10-12-
---------------------------------------

---------------------------------------
---------------------------------------
0-0-0-0-12-0-12--12-0-0-0-0-12-0-10-12-
---------------------------------------

---------------------------------------
---------------------------------------
0-0-0-0-12-0-12--12-0-0-0-0-12-0-10-12-
---------------------------------------

---------------------------------------
---------------------------------------
0-0-0-0-12-0-12--12-0-0-0-0-12-0-10-12-
---------------------------------------

Pre Chorus
---------------------------------------------------------------------------
---------------------------------------------------------------------------
0-0-0-0-10-10-7-7-8-8-7-7-5-5------0-0-0-0-0-0-0/-12-12-12-12-12-12-12-12--
-----------------------------8--3------------------------------------------

Chorus
------------------------------------------------------------
--------------------------------------------------7---------
8-7-5-----------5-------5-7-8-7-6-----7-8-10-7-10---/12-12-
------8-8-7-5-3---3-5-5-----------8-8-----------------------

----------------------------------------------------------------------------------------
----------------------------------------------------------------------------------------
8-7-5-----------5-------5-7-8-7-6---------------------2/7-7-7-7-5-5-5-5-----------------
------8-8-7-5-3---3-5-5-----------8-7-5-3-0-0-0-0-0-0-------------------8-8-8-8-7-7-7-7-

Verse
---------------------------------------
---------------------------------------
0-0-0-0-12-0-12--12-0-0-0-0-12-0-10-12-
---------------------------------------

------------------------------------------------------------------
------------------------------------------------------------------
0-0-0-0-12-0-12-14-14-15-15-14-14-12-12-10-10-12-12-10-10-8-8-7-7-
------------------------------------------------------------------

---------------------------------------
---------------------------------------
0-0-0-0-12-0-12--12-0-0-0-0-12-0-10-12-
---------------------------------------

---------------------------------------
---------------------------------------
0-0-0-0-12-0-12--12-0-0-0-0-12-0-10-12-
---------------------------------------

---------------------------------------
---------------------------------------
0-0-0-0-12-0-12--12-0-0-0-0-12-0-10-12-
---------------------------------------

Pre Chorus
----------------------------------------------------------------------------
----------------------------------------------------------------------------
0-0-0-0-10-10-7-7-8-8-7-7-5-5--------0-0-0-0-0-0-0/-12-12-12-12-12-12-12-12-
------------------------------8--3------------------------------------------

Chorus
------------------------------------------------------------
--------------------------------------------------7---------
8-7-5-----------5-------5-7-8-7-6-----7-8-10-7-10---/12-12-
------8-8-7-5-3---3-5-5-----------8-8-----------------------

-----------------------------------------------------------------------------------
-----------------------------------------------------------------------------------
8-7-5-----------5-------5-7-8-7-6---------------------2/7-7-7-7-7-7-7-7-7--2--3--4-
------8-8-7-5-3---3-5-5-----------8-7-5-3-0-0-0-0-0-0------------------------------

Bridge
----------------------------------------------------------------------------
----------------------------------------------------------------------------
5-5-5-5-5-3-------------------2-3-4-5-5-5-5-5-3-3-3-3-3---------------------
------------0-1-2-3-3-3-3-3-5---------------------------3-2-3-4-5-5-5-5-5-7-

----------------------------------------------------------------------------------------
--------------------------9-------------------------------------------------------------
----7-7-8-10-10-7-7-10-10---12-12-12-12-10-10-10-10-8-8-8-8-7-7-7-7-5-5-5-5-5-3---------
8-8-----------------------------------------------------------------------------0-1-2-3-

Interlude
--
-- (Hold A While)
0-
--

----------------------------------------------------------------------------------
----------------------------------------------------------------------------------
12-12-12-12-12-12-12--12-12--12-12-12-12-10-10-10-10-10-10-10--10-10--10-10-10-10-
----------------------------------------------------------------------------------

---------------------------------------------------------------------
---------------------------------------------------------------------
8-8-8-8-8-8-8--8-8--8-8-8-8-10-10-10-10-10-10-10--10-10--10-10-10-10-
---------------------------------------------------------------------

----------------------------------------------------------------------------------
----------------------------------------------------------------------------------
12-12-12-12-12-12-12--12-12--12-14-14-14-10-10-10-10-10-10-10--10-10--10-12-12-12-
----------------------------------------------------------------------------------

-------------------------------------------------------------
-------------------------------------------------------------
9-9-9-9-9-9-9--9-9--9-10-10-10-8-8-8-8-8-8-8-8-8-8-8-8-8-8-5-
-------------------------------------------------------------

--------------------------------------------------------------------------------
--------------------------------14-14-14-14-14-14-14-14-14-14-14-14-14-14-14-14-
7-7-7-7-7-7-7-7-7-7-7-7-7-7-7-7-------------------------------------------------
--------------------------------------------------------------------------------

Outro Chorus
----------------------------------------------------------
----------------------------------------------------------
8-7-5-----------5-------5-7-8-7-6-----7-8-10-7-10-12-12-7-
------8-8-7-5-3---3-5-5-----------8-8---------------------

------------------------------------------------------------------------------------
------------------------------------------------------------------------------------
8-7-5-----------5-------5-7-8-7-6---------------------2/7-7-7-7-7--7-7-7-7-7--7-7-7-
------8-8-7-5-3---3-5-5-----------8-7-5-3-0-0-0-0-0-0-------------------------------


Thats!!!

Taken from The BassMasta -- http://www.tabs-database.com



Get this song at amazon.com      Ebay     Ringtones Ringtones  


Learn to play: Songwriting, Piano, Harmonica, Guitar
Also available at Muzikum: AFI - Girls Not Gray lyrics

Related Afi Bass Tabs

Wake Up Call bass
Girls Not Grey bass
The Leaving Song Pt. Ii bass
Todays Lesson bass
Miss Murder (100% Perfect Or I'll Eat My Bass) bass
Sacrific Theory bass
The Leaving Song Pt 2 bass
The Days Of The Phoenix bass
The Boy Who Destroyed The World bass
Kung Fu Devil bass
3 1 2 bass
Over Exposure bass
An Introduction bass
Transference bass
Open Your Eyes bass
The Great Dissappointment bass
The Great Dissapointment bass
At A Glance bass
Kill Caustic bass
Who Knew bass


Guitar Tabs









All tabs are property and copyright of their owners. All tabs provided for educational purposes only. Privacy Policy, DMCA