Afi

Ever And A Day Tabs



More from Afi

Afi Tabs
Afi Chords
Afi Bass
Afi Lyrics

tabs-database.com[http://www.tabs-database.com.com/]
[Intro] - 00:00 - 00:26 [Distorted]

- ------------------------------------------------------------------------------------------------------------\

- ------------------------------------------------------------------------------------------------------------\

- 888-777-88-555-888-1010-121212-101010-88-101010-888-77-888-777-88-555-888-1010-1212121212-131313-1010101010-\

- xxx-xxx-xx-xxx-xxx-x x -x x x -x x x -xx-x x x -xxx-xx-xxx-xxx-xx-xxx-xxx-x x -x x x x x -x x x -x x x x x -\

- 666-555-66-333-666-8 8 -101010-8 8 8 -66-8 8 8 -666-55-666-555-66-333-666-8 8 -1010101010-111111-8 8 8 8 8 -\

- ------------------------------------------------------------------------------------------------------------\



\------------------------------------------------------------------------------------------------------------\

\------------------------------------------------------------------------------------------------------------\

\----------888-777-88-555-888-1010-121212-101010-88-101010-888-77-888-777-88-555-888-1010-1212121212-131313--\

\0-0-0-0-0-xxx-xxx-xx-xxx-xxx-x x -x x x -x x x -xx-x x x -xxx-xx-xxx-xxx-xx-xxx-xxx-x x -x x x x x -x x x --\

\0-0-0-0-0-666-555-66-333-666-8 8 -101010-8 8 8 -66-8 8 8 -666-55-666-555-66-333-666-8 8 -1010101010-111111--\

\0-0-0-0-0---------------------------------------------------------------------------------------------------\

PM.........



\-----------------

\-----------------

\1010101010101010-

\x x x x x x x x -

\8 8 8 8 8 8 8 8 -

\-----------------



[Verse 1] - 00:26 - 00:55 [Clean] [Play This Twice]

- ----------------------------------------------------------------------------------------------------------------

- ----------------------------------------------------------------------------------------------------------------

- --------5-------------5--------------5------------5-------------8-------------3-------------5------------5------

- ----------------------------------------------------------------------------------------------------------------

- 3-3-3-3--3-3-3--3-3-3--3-3-3-3-3-3-3--3-3-3--3-3-3-3-3-3-6-6-6-6-6-6-6-1-1-1-1-1-1-1-3-3-3-3-3-3-3--3-3-3-3-3-3-

- ----------------------------------------------------------------------------------------------------------------

PM....... ..... ..... ............. ..... ..... ............. ............. ............. ..... ..... .....

_________(Switch To Distortion Here)

|

[Bridge 1] - 00:55 - 01:11 V

- ------------------------------------------------------------------------------------------------------------\

- ------------------------------------------------------------------------------------------------------------\

- --------8--------3-3-3-3-3-3-3-3-5-5-5-5-5-5-5-5-5-5-5-5-///-8-8-8-8-8-8-8-8-3-3-3-3-3-3-3-3-5-5-5-5-5-5-5-5\

- -----------------x x x x x x x x-5-5-5-5-5-5-5-5-5-5-5-5-///-8-8-8-8-8-8-8-8-3-3-3-3-3-3-3-3-5-5-5-5-5-5-5-5\

- 6-6-6-6--6-6-6-6-1-1-1-1-1-1-1-1-3-3-3-3-3-3-3-3-3-3-3-3-///-6-6-6-6-6-6-6-6-1-1-1-1-1-1-1-1-3-3-3-3-3-3-3-3\

- ------------------------------------------------------------------------------------------------------------\

PM .=====================>



\----------------------------------------------------------------------------------

\----------------------------------------------------------------------------------

\5-5-5-5-1212-1010-8-8-8-8-8-8-8-8-3-3-3-3-3-3-3-3-5-5-5-5-5-5-5-5-5-5-5-5-5-5-5-5-

\5-5-5-5-x x -x x -8-8-8-8-8-8-8-8-3-3-3-3-3-3-3-3-5-5-5-5-5-5-5-5-5-5-5-5-5-5-5-5-

\3-3-3-3-1010-8 8 -6-6-6-6-6-6-6-6-1-1-1-1-1-1-1-1-3-3-3-3-3-3-3-3-3-3-3-3-3-3-3-3-

\----------------------------------------------------------------------------------

PM .=============================>



[Verse 2] - 01:11 - 01:43 [Distorted]

- ---------------------------------------------------------------------------------------------------------------\

- ---------------------------------------------------------------------------------------------------------4-4---\

- --------5-------------5--------------5------------5-------------8-------------3-------------5-------------5----\

- ---------------------------------------------------------------------------------------------------------------\

- 3-3-3-3--3-3-3--3-3-3--3-3-3-3-3-3-3--3-3-3--3-3-3-3-3-3-6-6-6-6-6-6-6-1-1-1-1-1-1-1-3-3-3-3-3-3-3--3-3-3------\

- ---------------------------------------------------------------------------------------------------------------\

PM....... ..... ..... ............. ..... ..... ............. ............. ............. ..... ..... .....



\---------------------------------------------------------------------------------------------------------------\

\---------------------------------------------------------------------------------------------------------------\

\--------5-------------5--------------5------------5-------------8-------------3-------------5------------5-----\

\---------------------------------------------------------------------------------------------------------------\

\3-3-3-3--3-3-3--3-3-3--3-3-3-3-3-3-3--3-3-3--3-3-3-3-3-3-6-6-6-6-6-6-6-1-1-1-1-1-1-1-3-3-3-3-3-3-3--3-3-3-3-3-3\

\---------------------------------------------------------------------------------------------------------------\

PM....... ..... ..... ............. ..... ..... ............. ............. ............. ..... ..... .....



\------------------------------------------

\------------------------------------------

\-----5-------------8--------5-5-5-5-5-5-5-

\----------------------------5-5-5-5-5-5-5-

\6-6-6-6-6-6-6-1-1-1-1-1-1-1-3-3-3-3-3-3-3-

\------------------------------------------

PM .===========>



[Chorus 1] - 01:43 - 02:08 [Distorted]

- -------------------------------------------------------------------------------------------------------------\

- -------------------------------------------------------------------------------------------------------------\

- 8-8-88-33-3-3/5-5-5-55-55-1212-1010-8-8-88-33-3-3/5-5-5-5-5-5-5-5-5-5-5-5-5-5-5-5-5-8-8-88-33-3-3/5-5-5-55-55\

- 8-8-88-33-3-3/5-5-5-55-55-x x -x x -8-8-88-33-3-3/5-5-5-5-5-5-5-5-5-5-5-5-5-5-5-5-5-8-8-88-33-3-3/5-5-5-55-55\

- 6-6-66-11-1-1/3-3-3-33-33-1010-8 8 -6-6-66-11-1-1/3-3-3-3-3-3-3-3-3-3-3-3-3-3-3-3-3-6-6-66-11-1-1/3-3-3-33-33\

- -------------------------------------------------------------------------------------------------------------\



\----------------------------------------------------------

\----------------------------------------------------------

\1212-1010-8-8-88-33-3-3/5-5-5-5-5-5-5-5-5-5-5-5-5-5-5-5-5-

\x x -x x -8-8-88-33-3-3/5-5-5-5-5-5-5-5-5-5-5-5-5-5-5-5-5-

\1010-8 8 -6-6-66-11-1-1/3-3-3-3-3-3-3-3-3-3-3-3-3-3-3-3-3-

\----------------------------------------------------------



[Singing] - 02:08 - 02:18



[Bridge 2] - 02:18 - 02:35 [Distorted]

- ---------------------------------------------------------------------------------------------------------------\

- ---------------------------------------------------------------------------------------------------------------\

- ---------------------------------------------------------------------------------------------------------------\

- 5~-///-9-9-9-9-9-9-9-9~-7-7-7-7-7-7-7-9-9-9-9-9-9-9-9~-7-7-7-7-7-7-7-9-9-9-9-9-9-9-9~-7-7-7-7-7-7-7-9-9-9-9-9-9\

- 3~-///-9-9-9-9-9-9-9-9~-7-7-7-7-7-7-7-9-9-9-9-9-9-9-9~-7-7-7-7-7-7-7-9-9-9-9-9-9-9-9~-7-7-7-7-7-7-7-9-9-9-9-9-9\

- 0~-///-7-7-7-7-7-7-7-7~-5-5-5-5-5-5-5-7-7-7-7-7-7-7-7~-5-5-5-5-5-5-5-7-7-7-7-7-7-7-7~-5-5-5-5-5-5-5-7-7-7-7-7-7\



[Chorus 2] - 02:35 - 03:06 [Distorted]

- -------------------------------------------------------------------------------------------------------------\

- -------------------------------------------------------------------------------------------------------------\

- 8-8-88-33-3-3/5-5-5-55-55-1212-1010-8-8-88-33-3-3/5-5-5-5-5-5-5-5-5-5-5-5-5-5-5-5-5-8-8-88-33-3-3/5-5-5-55-55\

- 8-8-88-33-3-3/5-5-5-55-55-x x -x x -8-8-88-33-3-3/5-5-5-5-5-5-5-5-5-5-5-5-5-5-5-5-5-8-8-88-33-3-3/5-5-5-55-55\

- 6-6-66-11-1-1/3-3-3-33-33-1010-8 8 -6-6-66-11-1-1/3-3-3-3-3-3-3-3-3-3-3-3-3-3-3-3-3-6-6-66-11-1-1/3-3-3-33-33\

- -------------------------------------------------------------------------------------------------------------\



\---------------------

\---------------------

\1212-1010-8~-3-3~--5~

\x x -x x -8~-1-1~--3~

\1010-8 8 -6~-1-1~--3~

\---------------------



[Symbols]

PM... (Palm Mute Notes With Dots Under Them}

~ (Let Note Ring)

/// (Pick Slide)

--\ \-- (End At One Slahs And Contine At The Other)

/ (Slide From First Note To The Second Note)

x (Mute Strin With Finger)

.===> (Start Palm Muted And Slowly Fade To Not Palm Muted)
Added by tabs-database.com and our distinguished partners
Get this song at amazon.com      Ebay     Ringtones Ringtones  


Learn to play: Songwriting, Piano, Harmonica, Guitar
Also available at Muzikum: AFI - Ever And A Day lyrics

Related Afi Tabs

Days Of The Phoenix Exact tabs
The Lost Souls (perfect) tabs
The Leaving Song Pt. Ii tabs
The Days Of The Phoenix tabs
Narrative Of A Soul Against Souls tabs
On The Arrow tabs
Dream Of Walking tabs
At A Glance Bass tabs
Charles Atlas tabs
6 To 8 (perfect) tabs
3 12 tabs
Dream Of Waking tabs
Cold Catharsis tabs
Love Like Winter tabs
Values Here tabs
Who Knew tabs
Reivers Music tabs
Ny Quil tabs
Shatty Fatimas tabs
Three Reasons tabs


Guitar Tabs









All tabs are property and copyright of their owners. All tabs provided for educational purposes only. Privacy Policy, DMCA