Afi

Ever And A Day Bass Tabs



More from Afi

Afi Tabs
Afi Chords
Afi Bass
Afi Lyrics



Band: AFI
Song: Ever and a Day
Tabbed By: Evan Winsor epw14@aol.com

Standard tuning, and listen to the song for timing.

/- slide up
- play 12 times
- play 8 times
,- play 4 times

-intro- x2
G|--------------------------------------------------------------------------------------
D|-----5-------------5------------8---------3-----------------------------------------
D|-3,-----3-3---3,------3/6-6,------6-1,--------------------------------------------
E|--------------------------------------------------------------------------------------

-verse-
G|--------------------------------------------------------------------------------------
D|---------------------8---------------------------------------------------------------
A|-3-3-pause---/6,------6-1--3---------------------------------------------------
E|--------------------------------------------------------------------------------------

-chorus- x2
G|--------------------------------------------------------------------------------------
D|-----8------------3------------5-------------5--------------------------------------
A|-6,-----6-6--1,-----1-1--3,------3-3--3,------------------------------------------
E|--------------------------------------------------------------------------------------

-verse2- x2 I think
G|------5-------------5----------5-------------5----------------8-----------3--------
D|--------------------------------------------------------------------------------------
A|-3,------3-3--3,-------3--3,------3-3--3,--------3/6--6,-------6-1,--------1/3--
E|---------------------------------------------------------------------------------------

-Chorus- breakdown
G|---------------------------------------------------------------------------------------
D|---------------------------------------------------------------------------------------
A|-------10-------6--------6/8---------------------------------------------------------
E|-6/8,-------8,------6-6---------------------------------------------------------------

-play when the distortion comes in-
G|----------------------------------------------------------------------------------------
D|----------------------------------------------------------------------------------------
A|-------10----------------6,------------------------------------------------------------
E|-6/8,-------8-8--6-6------------------------------------------------------------------

If you have any questions or comments e-mail me at epw14@aol.com or evanw@gfacademy.org.

Taken from The BassMasta -- http://www.tabs-database.com



Get this song at amazon.com      Ebay     Ringtones Ringtones  


Learn to play: Songwriting, Piano, Harmonica, Guitar
Also available at Muzikum: AFI - Ever And A Day lyrics

Related Afi Bass Tabs

Killing Lights bass
Fall Children bass
37mm bass
The Great Disappointment bass
Six To Eight bass
Todays Lesson bass
Your Name Here bass
Values Here bass
Rabbits are roadkill on route 37 bass
What Ever I Do bass
The Great Dissapointment bass
Cruise Control bass
Miss Murder bass
Two Of A Kind bass
Morning Star bass
Soap Box Derby bass
The Leaving Song Pt. Ii bass
Despair Factor bass
Smile bass
Rizzo In The Box(correct) bass


Guitar Tabs









All tabs are property and copyright of their owners. All tabs provided for educational purposes only. Privacy Policy, DMCA