Afi

Endlessly She Said Tabs



More from Afi

Afi Tabs
Afi Chords
Afi Bass
Afi Lyrics



Song: Endlessly, She Said

Artist: AFI

Tabbed by Patrick Lemon

Tuned E A D G B E



Intro (0:23-0:39)

|--2---2-----2--2--0------------|

|---3-2-2-2p3-3--3--3-2---------|

|-0--0---------0-2--2-5-44-5-44|

|----------------------x-xx-x-xx| x2

|----------------------3-22-3-22|

|-------------------------------|



Verse 1(0:40-0:47)

|-------0-------------|

|-3~---2-3p2h3--------|

|-----2-------5-44-5-4|

|-------------x-xx-x-x|

|-------------3-22-3-2|

|---------------------|



(0:48-0:55)

|--2----2-----2-3---------------------|

|-0-33-2-2-2p3-3-3--------------------|

|-----------------2-------5-44-5-4-4\-|

|---------------------2-0x-xx-x-x-x\-|

|------------------0p2-2--3-22-3-2-2\-|

|-------------------------------------|



Pre-Chorus (0:56-1:04)



|----------------------------------------------------------|

|--------3332-2-2--------5553-3-3-------3332-2-2-----------|

|-0p2-2/----------0p2-2/----------0p2-2/---------5-44-5-44-|

|-0p2-2/----------0p2-2/----------0p2-2/---------x-xx-x-xx-|

|------------------------------------------------3-22-3-22-|



(1:05-1:09)



|------------------------------------------------|

|---------3332-2-2-------5553-3-3-------7775-5-5-|

|------------------------------------------------|

|-0-0p2-2/--------0-0p2-2--------0-0p2-2---------|

|-0-0p2-2/--------0-0p2-2--------0-0p2-2---------|

|------------------------------------------------|



(1:09-1:13)



|--------------------|

|--------------------|

|-5-4-5-44-5-4-------|

|-x-x-x-xx-x-x-7-5-9-|

|-3-2-3-22-3-2-7-5-9-|

|--------------5-3-7-|



Chorus (1:14-1:21)



|------------------------------------------|

|------------------------------------------|

|------------------------------------------|

|-9999999/12121212121212/77777-77777-7-5-9-|

|-9999999/12121212121212/77777-77777-7-5-9-|

|-7777777/10101010101010/55555-55555-5-3-7-|



(1:22-1:30)

|----------------------------------------------|

|----------------------------------------------|

|----------------121212121212------------------|

|-9999999/121212--x-x-x-x-x-x777777777777-7-5-9|

|-9999999/121212-101010101010777777777777-7-5-9|

|-7777777/101010-------------555555555555-5-3-7|



Exit (1:30-1:33)

|-------------------|

|-------------------|

|-------------------|

|-99999999999999-9-9|

|-99999999999999-9-9|

|-77777777777777-7-7|



Verse 3

(1:33-1:37)

|-----------------|

|-----------------|

|-----------------|

|-----------------|

|-----------------|

|-----------------|



(1:38-1:41)

!!!Harmonics!!

|------|

|----5!|

|---5!-|

|--5!--|

|-5!---|

|------|



(1:42-1:44)

|-----------------|

|-----------------|

|-----------------|

|-----------------|

|-----------------|

|-----------------|



(1:44-1:46)

|------|

|----5!|

|---5!-|

|--5!--|

|-5!---|

|------|











Pre-Chorus (1:48-1:57)



|----------------------------------------------------------|

|--------3332-2-2--------5553-3-3-------3332-2-2-----------|

|-0p2-2/----------0p2-2/----------0p2-2/---------5-44-5-44-|

|-0p2-2/----------0p2-2/----------0p2-2/---------x-xx-x-xx-|

|------------------------------------------------3-22-3-22-|



(1:57-2:03)

|------------------------------------------------|

|---------3332-2-2-------5553-3-3-------7775-5-5-|

|------------------------------------------------|

|-0-0p2-2/--------0-0p2-2--------0-0p2-2---------|

|-0-0p2-2/--------0-0p2-2--------0-0p2-2---------|



(2:04-2:07)

|-------------------------|

|-------------------------|

|-5-4-5-44-5-4------------|

|-x-x-x-xx-x-x------7-5-9-|

|-3-2-3-22-3-2------7-5-9-|

|-------------------5-3-7-|





Chorus (2:07-2:15)



|------------------------------------------|

|------------------------------------------|

|------------------------------------------|

|-9999999/12121212121212/77777-77777-7-5-9-|

|-9999999/12121212121212/77777-77777-7-5-9-|

|-7777777/10101010101010/55555-55555-5-3-7-|



(2:16-2:23)

|----------------------------------------------|

|----------------------------------------------|

|----------------121212121212------------------|

|-9999999/121212--x-x-x-x-x-x777777777777-7-5-9|

|-9999999/121212-101010101010777777777777-7-5-9|

|-7777777/101010-------------555555555555-5-3-7|



(2:24-2:26)

|----------------|

|----------------|

|----------------|

|-99999999999999-|

|-77777777777777-|

|-77777777777777-|





Fill (2:26-2:38)



|-2p3-00-10-3-0----------------|

|------------------------------|

|------------------------------|

|---------------99999999-9999--| x3

|---------------77777777-7777--|

|---------------77777777-7777--|

,,,,,,,,





Break-Down-to-Solo (2:39-2:43)



|-----------------------|

|-----------------------|

|-----------------------|

|-9-7-555555555555555-7-|

|-9-7-555555555555555-7-|

|-7-5-333333333333333-5-|





SOLO (2:43-2:47)



|-2p3-00-10-3-0----------------|

|------------------333---2p3-3-|

|---------------------222------|

|---------------000------------|

|------------------------------|

|------------------------------|



(2:47-2:51)



|-2p3-00-10-3-0----------------------------|

|--------------------------------------77~-|

|----------------------------------7!7!----|

|-------------------0h2-2------7!7!--------|

|--------------0h2-2-----------------------|

|------------------------------------------|



(2:52-2:55)



|-2p3-00-----------------------|

|--------9!------333----2p3h2--|

|---------9!-------------------|

|----------9!-222---000--------|

|------------------------------|

|------------------------------|



Solo break-down (2:55-2:59)

|------------|

|------------|

|---4*-5*----|

|-5--------7-|

|-5--------7-|

|-3--------5-|



Build Up (2:59-3:06)



|------------------------------------|

|------------------------------------|

|------------------------------------|

|-55-5-5-5\77-7-7-7-7-7-77-7-7-7-7-7-|

|-xx-x-x-x\xx-x-x-x-x-x-xx-x-x-x-x-x-|

|-33-3-3-3\55-5-5-5-5-5-55-5-5-5-5-5-|

,, , , , ,, , , , , ,



Pre-Chorus mini Solo (3:07-3:14)



|---------------------------|

|----3-3-------------0---2~-|

|-----------------2---------|

|-000-0----------0-00-00----|

|-------0p444542------------|

|---------------------------|



Chorus (3:14-3:24)



|------------------------------------------|

|------------------------------------------|

|------------------------------------------|

|-9999999/12121212121212/77777-77777-7-5-9-|

|-9999999/12121212121212/77777-77777-7-5-9-|

|-7777777/10101010101010/55555-55555-5-3-7-|



(3:24-3:31)

|----------------------------------------------|

|----------------------------------------------|

|----------------121212121212------------------|

|-9999999/121212--x-x-x-x-x-x777777777777-7-5-9|

|-9999999/121212-101010101010777777777777-7-5-9|

|-7777777/101010-------------555555555555-5-3-7|



(3:32-3:39)

|----------------------------------------------|

|----------------------------------------------|

|----------------141414141414------------------|

|-9999999/121212--x-x-x-x-x-x777777777777-7-5-9|

|-9999999/121212-121212121212777777777777-7-5-9|

|-7777777/101010-------------555555555555-5-3-7|



(3:40-3:47)

#strum it continuously#

|----------------------------------------|

|----------------------------------------|

|----------------------------------------|

|-9-9/11/12-12/14/11111111--161616161616-|

|-x-x/-x/-x--x/-x/-x-x-x-x---x-x-x-x-x-x-|

|-7-7/-9/10-10/12/-9-9-9-9--141414141414-|





Screaming Part (3:48-3:55)



|----------------------------|

|----------------------------|

|----------------------------|

|-999999/777777/555555/777777|

|-xxxxxx/xxxxxx/xxxxxx/xxxxxx|

|-777777/555555/333333/555555|



(3:55-4:03)

|-------------------------------------|

|-------------------------------------|

|-------------------------------------|

|-999999/777777/555555/-------77----99|

|-xxxxxx/xxxxxx/xxxxxx/-----55----77--|

|-777777/555555/333333/---33----55----|





Outro (4:04-4:18)

|-----------------------------------------|

|-----------------------------------------|

|-----------------------------------------|

|------------------------4~-52~-40------|

|-2~-24~-5--5--7~4-0-----------------1~-|

|-----------------------------------------|





Added by tabs-database.com and our distinguished partners
Get this song at amazon.com      Ebay     Ringtones Ringtones  


Learn to play: Songwriting, Piano, Harmonica, Guitar
More AFI lyrics available at Muzikum

Related Afi Tabs

Miss Murder tabs
Rizzo In The Box tabs
Scarifice Theory Solo tabs
Six To Eight tabs
Death Of Seasons tabs
Shatty Fatimas tabs
Girls Not Grey tabs
3 1 2 tabs
Prayer Position Intro tabs
The Nephilim Bass tabs
Crop Tub tabs
Advances In Modern Technology tabs
Despair Factor tabs
Coin Return tabs
Third Season tabs
Shatty Fatmas tabs
Kill Caustic Bass tabs
Cold Catharsis tabs
The Killing Lights(intro And Verses) tabs
The Nephilim tabs


Guitar Tabs









All tabs are property and copyright of their owners. All tabs provided for educational purposes only. Privacy Policy, DMCA