Afi

Endlessly She Said Bass Tabs



More from Afi

Afi Tabs
Afi Chords
Afi Bass
Afi Lyrics



Endlessly, She Said.

Tabbed by: DownbėloW

Artist: AFI



This is a wonderful song. It's one of my all time favorites. I love the bass part in

and I decided, no one else is tabbing the bass, so I guess I'll do it. Well, here it is.

know there are a few mistakes, but hey, it's hard to hear the bass in most AFI songs.



Tuning is a half step flat, for everyone who doesn't play AFI much.



Intro, before singing.



G|----------------------------------|

D|----7---------------7--9----9-----| X2

A|---9------9-10-----7-----9-9--9-9-|

E|7------7--------5-----------------|



Verse 1



G|--------------------------------------|

D|----7-------------------7--9----9-----| X2

A|---9------9-10-9-7-----7-----9-9--9-9-|

E|7------7------------5-----------------|



Pre-Chorus



G|---------------------------------------------|

D|---------------------------------------------|

A|----------------------------14------14-------|

E|/777----/777----/777---7/12----12-12---12-12-|



G|------------------------------------------------|

D|-------7-------------------7---9---9---9--------|

A|----999------99910-----999---9---9---9---9------|

E|/777-----/777------/777--------------------5--3-|



Chorus

I think this is right. I know I'm missing a few parts, but it's really hard to hear.



G|-------------------------------------------------|

D|------------------------------------------7------|

A|2---2h5-2h5-2---2h5-2h5-0---0h5-0h5-----7--------|

E|--------------------------------------5-----5--3-|



G|-------------------------------------------------------4-|

D|----------------------------------7------------------4---|

A|2---2h5-2h5---5---5h7-5h7-0-----7----------2~~~~~2-5-----|

E|------------------------------5------5--3----------------|



Verse 2



G|--------------------------|-----------------------------------|

D|----7-------------------7-|----7--9---7-7------7---9----9-----|

A|---9---9---9-10-9-7---7---|---9--9---9-9-----7-------9-9--9-9-|

E|7-------7-----------5-----|7---------------5------------------|



Bridge



G|---|-----------------------------------------------|

D|---|-----------------------------------------------|

A|---|2222222--------0000000--------2222222---5-5--7-|

E|---|-------------------------------------0---5-----|



G|-------------------|-----------------|----------------------------|

D|-------------------|-----------------|------------------2--5-5--7-|

A|5h7777-------------|5h7777-----------|5h7777----------------5-----|

E|-------5555555h7p5-|-------5555557---|-------55555557-3-----------|



Building up to clean electric part before chorus



G|------------------------------------|

D|------------------------------------|

A|5-55-5-5-5-7-77-7-7-7-9-99-9-9-9-10-|

E|------------------------------------|



Screaming Outro part



G|-------------------------------------|

D|9----9-----7----7-----5----5-----4~~~| X2

A|--9-9--9-9---7-7--7-7---5-5--5-5-----|

E|-------------------------------------|



Girly sounding outro (very end)



G|--------------------------------------------------------|

D|---9-----7------5------7----9------7-----5-7-5---4~~~~~~|

A|--------7------5------7-----------7---------------------|

E|7----5------3------5------7----5------3--------5--------|



I hope you enjoy this tab. Peace.Added by tabs-database.com and our distinguished partners
Get this song at amazon.com      Ebay     Ringtones Ringtones  


Learn to play: Songwriting, Piano, Harmonica, Guitar
More AFI lyrics available at Muzikum

Related Afi Tabs

Now The World tabs
On The Arrow tabs
Rabbits Are Roadkill On Route tabs
3 1 2 tabs
Third Season tabs
Brownie Bottom Sundae tabs
Summer Shudder tabs
Morning Star (Version 2) tabs
The Prayer Position tabs
This Time Imperfect tabs
Bleed Black tabs
Prelude 12/21 tabs
Three Seconds Notice tabs
Killing Lights tabs
File13 tabs
Shatty Fatmas tabs
Porphyria tabs
Take The Test tabs
Dream Of Walking tabs
The Secret Ninja tabs


Guitar Tabs









All tabs are property and copyright of their owners. All tabs provided for educational purposes only. Privacy Policy, DMCA