Afi

Dont Make Me Ill Bass Tabs



More from Afi

Afi Tabs
Afi Chords
Afi Bass
Afi Lyrics



Artist: AFI
Song: Don't Make Me Ill
Album: Answer That & Stay Fashionable
Tuning: Standard
Tabbed by: Spidey255

Intro
G|---------------------|-----------------------|---------------------------|
D|---------------------|-----------------------|---------------------------|
A|-5555----------------|-5555------------------|---------------------------|
E|------2-3-2-33333333-|------2-3-2-3333-5-3-0-|55555555-4-555-4-555-4-555-|

Verse
G|-----------------------|---------------------|
D|-----------------------|---------------------|
A|-5555------------------|-5555----------------|
E|------3333-555-4-555-4-|------5555-3333-5555-|

Pre-Chorus
G|---------------------|---------------------|
D|---------------------|---------------------|
A|---------------------|-5555----------------|
E|-3333-5555-7777-3333-|------5555-7777-3333-|

-verse
-prechorus

Chorus
G|---------2x-------------|---------2x--------|------|
D|------------------------|-------------------|------|then go back
A|-5555-0000-2-5-2-0------|-------------------|-5555-|to the second
E|-------------------3333-|-55555555-33333333-|------|part there

Guitar Solo
G|----------------------------|------------------------|
D|----------------------------|------------------------|
A|-55-555-00000-22-222--------|-55-555-00000-22--------|
E|---------------------3-3333-|------------------33-55-|

-chorus

Faster Chorus
G|-7777--------------------|-7~---|
D|------7777-9-12-9-7-5555-|------|
A|-------------------------|----5-|
E|-------------------------|------|

Taken from The BassMasta -- http://www.tabs-database.com



Get this song at amazon.com      Ebay     Ringtones Ringtones  


Learn to play: Songwriting, Piano, Harmonica, Guitar
Also available at Muzikum: AFI - Dont Make Me Ill lyrics

Related Afi Bass Tabs

Sts Hidden Song bass
Silver And Cold bass
Over Exposure bass
Of Greatings & Goodbyes bass
Hanging Garden bass
Perfect Fit bass
Endlessly She Said bass
This Celluloid Dream bass
Miss Murder (i Hope This Is Good It Took Me Forever To Finish) bass
The Leaving Song bass
Now The World bass
The Deathless Ones bass
Wester bass
Crop Tub bass
3 12 bass
Third Season bass
Weathered Tomb bass
Total Immortal bass
Self Pity bass
Highschool Football Hero bass


Guitar Tabs









All tabs are property and copyright of their owners. All tabs provided for educational purposes only. Privacy Policy, DMCA