Afi

Dont Make Me Ill Bass Tabs



More from Afi

Afi Tabs
Afi Chords
Afi Bass
Afi Lyrics



Song: Don't Make Me Ill

Album: Answer That And Stay Fashionable

Band: A Fire Inside

Tabbed By: Masterbasser36





Intro

G|------------------------------------------------------------------------|

D|------------------------------------------------------------------------|

A|-5555----------------5555-----------------------------------------------|

E|------2-3-2-33333333------2-3-2-3333-5-3-0-55555555-4-555-4-555-4-555---|



Verse

G|----------------------------------------------|

D|----------------------------------------------|

A|-5555-------------------5555------------------|

E|------3333-555-4-555-4-------5555-3333-5555---|



Pre-Chorus

G|--------------------------------------------|

D|--------------------------------------------|

A|----------------------5555------------------|

E|-3333-5555-7777-3333-------5555-7777-3333---|



Verse

G|----------------------------------------------|

D|----------------------------------------------|

A|-5555-------------------5555------------------|

E|------3333-555-4-555-4-------5555-3333-5555---|



Pre-Chorus

G|--------------------------------------------|

D|--------------------------------------------|

A|----------------------5555------------------|

E|-3333-5555-7777-3333-------5555-7777-3333---|



Chorus x2 x2 x2

G|------------------------||-------------------||------||-----------------------------|

D|------------------------||-------------------||------||-----------------------------|

A|-5555-0000-2-5-2-0------||-------------------||-5555-||-------------------||-5555---|

E|-------------------3333-||-55555555-33333333-||------||-55555555-33333333-||--------|



Guitar Solo

G|------------------------------------------------------|

D|------------------------------------------------------|

A|-55-555-00000-22-222---------55-555-00000-22----------|

E|---------------------3-3333-------------------33-55---|



Chorus x2 x2 x2

G|------------------------||-------------------||------||-----------------------------|

D|------------------------||-------------------||------||-----------------------------|

A|-5555-0000-2-5-2-0------||-------------------||-5555-||-------------------||-5555---|

E|-------------------3333-||-55555555-33333333-||------||-55555555-33333333-||--------|



Chorus 2

G|-7777---------------------7-----|

D|------7777-9-12-9-7-5555--------|

A|----------------------------5---|

E|--------------------------------|





Please Rate and Enjoy!

Comment if you find any mistakes or have any questions.

Added by tabs-database.com and our distinguished partners
Get this song at amazon.com      Ebay     Ringtones Ringtones  


Learn to play: Songwriting, Piano, Harmonica, Guitar
More AFI lyrics available at Muzikum

Related Afi Tabs

Don't Make Me Ill tabs
Interview tabs
Prayer Position tabs
Mini Trucks Suck tabs
3 12 Bass tabs
Hearts Frozen Soil tabs
37 mm tabs
Prelude 1221 tabs
A Winter Tale tabs
The Secret Ninja tabs
Advances In Modern Technology tabs
Endlessly She Said Bass tabs
This Celluliod Dream tabs
Miss Murder Bass tabs
I Dont Wanna Fuck You tabs
A Single Second tabs
Bleed Black tabs
Initiation tabs
Who Said You Could Touch Me Anyway tabs
Dont Make Ill Solo tabs


Guitar Tabs









All tabs are property and copyright of their owners. All tabs provided for educational purposes only. Privacy Policy, DMCA