Afi

Despair Factor Tabs



More from Afi

Afi Tabs
Afi Chords
Afi Bass
Afi Lyrics



|-0-0-0-0--3-5--7--7-7-7--3-5-3--3-3-3-5--6-6-6-6-3-3-3-3--
|-0-0-0-0--3-5--7--7-7-7--3-5-3--3-3-3-5--6-6-6-6-3-3-3-3--
|-0-0-0-0--4-6--8--8-8-8--4-6-4--3-3-5-6--5-5-5-5-4-4-4-4--
|-2-2-2-2--5-7--9--9-9-9--5-7-5--5-5-5-7--8-8-8-8-5-5-5-5--
|-2-2-2-2--5-7--7--7-7-7--5-7-5--5-5-5-7--8-8-8-8-5-5-5-5--
|-0-0-0-0--3-5--7--7-7-7--3-5-3--3-3-3-5--6-6-6-6-3-3-3-3--

|-0-0-0-0--3-3--7--7-7-7--3-5-3--3-3-3-5--1-1-1-1-1-1-1-1
|-0-0-0-0--3-3--7--7-7-7--3-5-3--3-3-3-5--1-1-1-1-1-1-1-1
|-0-0-0-0--4-4--8--8-8-8--4-6-4--4-4-4-6--1-1-1-1-1-1-1-1
|-2-2-2-2--5-7--9--9-9-9--5-7-5--5-5-5-7--3-3-3-3-3-3-3-3
|-2-2-2-2--5-7--7--7-7-7--5-7-5--5-5-5-7--3-3-3-3-3-3-3-3
|-0-0-0-0--3-5--7--7-7-7--3-5-3--3-3-3-5--1-1-1-1-1-1-1-1

|-----------------0--7-|
|-----------------0--8-|
|-----------------0--8-|
|-----------------2--9-|slide to the verse
|----5---7---5--2---7--|
|-0-3-0-5-0-3-0----7---|

|-0-0-0-0-0-0-0-0--7-7-7-7-7-7-7-7--3-3-3-3-3-3-3-3-----------7-7-7-7-|
|-0-0-0-0-0-0-0-0--7-7-7-7-7-7-7-7--3-3-3-3-3-3-3-3-----------7-7-7-7-|
|-0-0-0-0-0-0-0-0--8-8-8-8-8-8-8-8--4-4-4-4-4-4-4-4--4-4-7-7--8-8-8-8-|
|-2-2-2-2-2-2-2-2--9-9-9-9-9-9-9-9--5-5-5-5-5-5-5-5--7-7-4-4--9-9-9-9-|
|-2-2-2-2-2-2-2-2--7-7-7-7-7-7-7-7--5-5-5-5-5-5-5-5--5-5-5-5--9-9-9-9-|
|-0-0-0-0-0-0-0-0--7-7-7-7-7-7-7-7--3-3-3-3-3-3-3-3--3-3-3-3--7-7-7-7-|

chorus
8x 8x 16x
|-3--7--5-|
|-5--8--7-|
|-5--9--7-|
|-5--9--7-|
|-3--7--5-|
|-3--7--5-|

now i got the verse and chorus, i'll have the breakdown and all the jazz later.


Get this song at amazon.com      Ebay     Ringtones Ringtones  


Learn to play: Songwriting, Piano, Harmonica, Guitar
301 Moved Permanently

Moved Permanently

The document has moved here.

Related Afi Tabs

The Leaving Song tabs
Kill Caustic tabs
Endlessly She Said Bass tabs
Total Immortal Bass tabs
Values Here tabs
Miseria Cantare tabs
37mm Bass tabs
Rizzo In A Box tabs
Prelude 12/21 tabs
6 To 8 tabs
3 1 2 tabs
Smile tabs
Modern Epic tabs
Key Lime Pie tabs
This Secret Ninja tabs
The Last Kiss (solo) tabs
Hearts Frozen Soil tabs
The Devil Loves You tabs
But Home Is Nowhere tabs
Take The Test tabs


Guitar Tabs




All tabs are property and copyright of their owners. All tabs provided for educational purposes only. Privacy Policy, DMCA