Afi

Death Of Seasons Bass Tabs



More from Afi

Afi Tabs
Afi Chords
Afi Bass
Afi Lyrics




Intro
G|---------------------------------------------------------------|
D|--12-14---15-14---14-12-10-12-----9-10---12-10--10-9----5------|
A|-0------0-------0-------------0-0------0-------0-----0------0--|
E|---------------------------------------------------------------|

when he starts singing
G|--------------------------------------------------------------|
D|---12-14---15-14---14-12-10-12-----9-10---12-10---10-9---10-9-|
A|-0-------0-------0-------------0-0------0-------0------0------|
E| -------------------------------------------------------------|

last part
G|---------------------|
D|---9-10---12-10-9-10-|replace the -10-19-
A|-0------0------------|
E|---------------------|

Verse
G|-------------------------------------------|----|
D|-------------------------------------------|----|
A|-8-77-8-77-8-77-2/8\2-3-22-3-22-3-22--5555-|-0~-|
E|-------------------------------------------|----|

Pre-chorus
G|------------------|
D|------------------|
A|-----------/10----|
E|-5-5-5-3>/--------|

Chorus
G|-----------------------------------------|
D|-----------------------------------------|
A|-3-3-3-3-3-3-7-8-10-10-10-10-10-12-10----|
E|--------------------------------------12-|

G|----------------------------------------------|
D|-15-14-12----15-14-12----14-12-10----12-10-9--|
A|----------14----------14----------12----------|
E|----------------------------------------------|

G|-----------------------------------------------------------------------------|
D|-----------------------------------------------------------------------------|
A|-3-3-3-3-3-3-3-3-7-8-10-10-10-10-10-10-10-10-7-7-7-7-5-5-5-5-3-3-3-3-0-0-0-0-|
E|-----------------------------------------------------------------------------|

G|-----------------------------------------|
D|-----------------------------------------|
A|-3-3-3-3-3-3-7-8-10-10-10-10-10-12-10----|
E|--------------------------------------12-|

G|----------------------------------------------|
D|-15-14-12----15-14-12----14-12-10----12-10-9--|
A|----------14----------14----------12----------|
E|----------------------------------------------|

G|---------------|
D|---------------|
A|-3>-------/10>-|
E|----1>-3>/-----|

Techno Part (no bass)

Breakdown
G|--------------|----|
D|-7>-9>-10>-7>-|-7>-|
A|--------------|----|
E|--------------|----|

Heavier part
G|----------------------------------------------|
D|----------------------------------------------|
A|-000000000000-22-33---------------------------|
E|--------------------33333333-5555555555555555-|

The last time
G|---------------------------------------|
D|---------------------------------------|
A|-000000000000-22-33-77777777-7-5-------|
E|---------------------------------8-7-0-|

Screaming Part of Breakdown
G|-----------------------------|------------|
D|-----------------------------|------------|
A|----3-5-2-3----333----5-3-2--|----7-8-5-7-|
E|-1>---------1>---- 333-------|-1>---------|

Ending
G|--------------------|
D|-------------5------|
A|-----3-3-5-3--------|
E|-1-1---------3-3-1~-|



Get this song at amazon.com      Ebay     Ringtones Ringtones  


Learn to play: Songwriting, Piano, Harmonica, Guitar
Also available at Muzikum: AFI - Death Of Seasons lyrics

Related Afi Bass Tabs

The Prayer Position bass
Of Seasons bass
The lost souls bass
Halloween bass
Cereal wars bass
Crop Tub bass
Ph Low bass
Shatty Fatimas bass
Synesthesia bass
Values Here bass
But Home Is Nowhere bass
Two Of A Kind bass
6 To 8 bass
Weathered Tomb bass
Total Immortal bass
Sts Hidden Song bass
The New Patron Saints And Angels bass
This Time Imperfect bass
Total Immortal (corrected 100% Right) bass
Totalimmortal bass


Guitar Tabs









All tabs are property and copyright of their owners. All tabs provided for educational purposes only. Privacy Policy, DMCA