Afi

Days Of The Phoenix Chords, Tabs



More from Afi

Afi Tabs
Afi Chords
Afi Bass
Afi Lyrics

#-----------------------------PLEASE NOTE-------------------------------------#
#This OLGA file is the author's own work and represents their interpretation  #
#of the song. You may only use this file for private study, scholarship, or   #
#research. Remember to view this file in Courier, or some other monospaced    #
#font. See http://www.olga.net/faq/ for more information.                     #
#-----------------------------------------------------------------------------#



Subject: a/afi/days_of_the_phoenix.tab

Days of the Phoenix by AFI
>From the album The Art of Drowning
Words and music by Davey Havok and AFI

Submitted by Aaron Mickelson (aaronmickelson@hotmail.com)
  - Give me an email me if you find something wrong, this is all my own 
work, and I
    think it is mostly correct, with a few minor things I couldn't figure 
out. Enjoy. :)

Standard Tuning

Intro  Distortion (top 3 strings)

e|----5---2---3---2---3------------|----5---3---5----5/7---------------------
B|--0---0---0---0---0---0--2--3--2-|--0---0---0---0--0-----------------------
G|---------------------------------|-----------------------------------------

e ----------------5---3--5--3--2--3--2-|------5---3--5--3------3---3--2------
B -0-0--3--2--3--3--3------------------|-3--3---3---------3--3---3------3--0-
G -------------------------------------|-------------------------------------

 








to end the song play the line above, but end it with a 2 instead of a 0

VERSE  (1st verse mostly quiet, but when you come in the first
         time add a x02220 to start it)
e ------------------------------------------------------------|
B ------------------------------------------------------------|
G ---4-4-4-4-4--2-2-2-2-2--4-4-4-4-4--7-7-7-7-7---------------|
D ---4-4-4-4-4--2-2-2-2-2--4-4-4-4-4--7-7-7-7-7--5-5-5-5-5----|
A ---2-2-2-2-2--0-0-0-0-0--2-2-2-2-2--5-5-5-5-5--5-5-5-5-5----|
E -----------------------------------------------3-3-3-3-3----|

last time through add this and use palm muting after the first chord, but 
not on the last chord
e|-----------------------
B|-----------------------
G|---5--5-5-5-5-5-5--7---
D|---5--5-5-5-5-5-5--7---
A|---3--3-3-3-3-3-3--5---
E|-----------------------

CHORUS
e --------------------------------------|
B --------------------------------------|
G ---4-4-4-4-4--7-7-7-7-7---------------|
D ---4-4-4-4-4--7-7-7-7-7--5-5-5-5-5----|  last time through add a |-7-|
A ---2-2-2-2-2--5-5-5-5-5--5-5-5-5-5----|                          |-7-|
E -------------------------3-3-3-3-3----|                          |-5-|

Bridge   Clean
e|-----------------------
B|-----0---------0--3----
G|---0---0-----0---------
D|-4---------4-----------  x4
A|-----------------------
E|-----------------------

Distortion  PALM MUTE MOST OF THIS
e ------------------------------------------------------------------------|
B ------------------------------------------------------------------------|
G ---4-4-4-4-4-4-4-4--12-12-12--11-11--9---7-7-7-9-9-9-9-6-6-6-7-7-6-6----|
D ---4-4-4-4-4-4-4-4--12-12-12--11-11--9---7-7-7-9-9-9-9-6-6-6-7-7-6-6----|  x2
A ---2-2-2-2-2-2-2-2--10-10-10---9--9--7---5-5-5-7-7-7-7-4-4-4-5-5-4-4----|
E ------------------------------------------------------------------------|

let first chord be open then palm mute and then let the last chord be open

 








e|-----------------------
B|-----------------------
G|---5--5-5-5-5-5-5--7---
D|---5--5-5-5-5-5-5--7---
A|---3--3-3-3-3-3-3--5---
E|-----------------------
Get this song at amazon.com      Ebay     Ringtones Ringtones  


Learn to play: Songwriting, Piano, Harmonica, Guitar
301 Moved Permanently

Moved Permanently

The document has moved here.

Related Afi Chords

Days Of The Phoenix chords
He Who Laughs Last chords
This Celluloid Dream chords
Your Name Here chords
The Leaving Song Part Two chords
Miss Murder chords
Morning Star chords
This Time Imperfect chords
Three And A Half chords
God Called In Sick Today (Version 2) chords


Guitar Tabs




All tabs are property and copyright of their owners. All tabs provided for educational purposes only. Privacy Policy, DMCA