Afi

Dancing Through Sunday Tabs



More from Afi

Afi Tabs
Afi Chords
Afi Bass
Afi Lyrics



Dancing Through Sunday


Here is the tab 4 this song. ENJOY!!!!!!!!!!!
Standard tuning.


Intro
(W/ Distortion)
|---------------=
|---------------=
|---------------=
|---8-7-6-------=
|---------8-6---=
|---------------=

|---------------=
|---------------=
|---------------=
|---8-7-6-------=
|---------8-6---=
|---------------=

|---------------=
|---------------=
|---------------=
|---8-7-6-------=
|---------8-6---=
|---------------=

|---------------=
|---------------=
|---------------=
|---8-7-6-------=
|---------8-6---=
|---------------=


Verse 1

|-------------=
|-------------=
|---8-----6---=
|---8--9--6---=
|---6--9--4---=
|------7------=

|-------------=
|-------------=
|---8-----6---=
|---8--9--6---=
|---6--9--4---=
|------7------=

|-------------=
|-------------=
|---8-----6---=
|---8--9--6---=
|---6--9--4---=
|------7------=

|-------------=
|-------------=
|---8-----6---=
|---8--9--6---=
|---6--9--4---=
|------7------=


Chorus

|-----------|
|-----------|
|-------8---|
|---4---8---|
|---4---6---|
|---2-------|

|-----------|
|-----------|
|-------8---|
|---4---8---|
|---4---6---|
|---2-------|

|-----------|
|-----------|
|-------8---|
|---4---8---|
|---4---6---|
|---2-------|


Bridge

|---------------=
|---------------=
|---4--8/5------=
|---4--8/7--3---=
|---2--6/7--3---=
|-----------1---=


Verse 2

|-------------=
|-------------=
|---8-----6---=
|---8--9--6---=
|---6--9--4---=
|------7------=

|-------------=
|-------------=
|---8-----6---=
|---8--9--6---=
|---6--9--4---=
|------7------=

|-------------=
|-------------=
|---8-----6---=
|---8--9--6---=
|---6--9--4---=
|------7------=

|-------------=
|-------------=
|---8-----6---=
|---8--9--6---=
|---6--9--4---=
|------7------=


Chorus

|-----------|
|-----------|
|-------8---|
|---4---8---|
|---4---6---|
|---2-------|

|-----------|
|-----------|
|-------8---|
|---4---8---|
|---4---6---|
|---2-------|

|-----------|
|-----------|
|-------8---|
|---4---8---|
|---4---6---|
|---2-------|


Bridge

|---------------=
|---------------=
|---4--8/5------=
|---4--8/7--3---=
|---2--6/7--3---=
|-----------1---=


Solo

The solo is just improising with the E pentatonic scale.
U can just bend a few notes, slide a few notes, and there u have it.


Chorus

|-----------|
|-----------|
|-------8---|
|---4---8---|
|---4---6---|
|---2-------|

|-----------|
|-----------|
|-------8---|
|---4---8---|
|---4---6---|
|---2-------|

|-----------|
|-----------|
|-------8---|
|---4---8---|
|---4---6---|
|---2-------|


Bridge

|---------------=
|---------------=
|---4--8/5------=
|---4--8/7--3---=
|---2--6/7--3---=
|-----------1---=



That's it. ENJOY!!!!!!!!!!!


Get this song at amazon.com      Ebay     Ringtones Ringtones  


Learn to play: Songwriting, Piano, Harmonica, Guitar
Also available at Muzikum: AFI - Dancing Through Sunday lyrics

Related Afi Tabs

Aspirin Free tabs
Carcinogen Crush tabs
The Devil Loves You tabs
Sacrifice Theory tabs
Bleed Black Intro tabs
Battled tabs
Lithium tabs
Morningstar tabs
Dream Of Waking tabs
My Michelle tabs
Who Said You Could Touch Me Anyways tabs
Theory Of Revolution tabs
Kill Caustic Bass tabs
The Despair Factor tabs
The Leaving Song tabs
Prelude 1221 tabs
The Praying Position tabs
Halloween tabs
The Nephilim Bass tabs
The Prayer Postion tabs


Guitar Tabs









All tabs are property and copyright of their owners. All tabs provided for educational purposes only. Privacy Policy, DMCA