Afi

Dancing Through Sunday Bass Tabs



More from Afi

Afi Tabs
Afi Chords
Afi Bass
Afi Lyrics




Artist: AFI
Song: Dancing Through Sunday
Album: Sing The Sorrow
Instrument: Bass
submitted by: crash

Intro (it's either a hum or bass but play it if u want)
A|-0/19-|

Verse
G|------------------------------------|
D|------------------------------------|when jade palm mutes don't hammer on
A|-5/7b-------5h7---------------------|the 5 to the 7 just hit the 7
E|-----0-3b-0-----0-3-0-2h3-2-2-2-2-2-|

Chorus

G|----------------------|-------------------------|
D|----------------------|-------------------------|
A|-------------77777777-|------------77-10-9-10-9-|
E|-3333333-5h7----------|-333333-5h7--------------|

Post Chorus
G|-------------------|
D|-------------------|
A|-33333-0-2-3-5>-6>-|
E|-------------------|

verse
chorus
post chorus

Bridge
G|-------------------------|
D|-------------------------|i dont know if this is the exact when the gutiar comes
A|-----5/7---------5h7-5h7-|in but it probably is very close
E|-0-0-----0-0-0-0---------|

G|--------|
D|--------|
A|-2>-10!-|
E|--------|

Play the verse during the solo
chorus

Ending
G|---------------------------------------------------------|
D|---------------------------------------------------------|
A|-33333-0-2-3-5555-12/0-33333-0-2-3-5555-66666666-7-------|
E|---------------------------------------------------7-5-0-|



Get this song at amazon.com      Ebay     Ringtones Ringtones  


Learn to play: Songwriting, Piano, Harmonica, Guitar
Also available at Muzikum: AFI - Dancing Through Sunday lyrics

Related Afi Bass Tabs

This Celluloid Dream bass
Lower It bass
Synesthesia bass
Let It Be Broke bass
Strength Through Wounding bass
Checkered Demon bass
Keeping Out Of Direct Sunlight bass
Your Name Here bass
Miss Murder bass
Wake Up Call bass
The Prayer Position bass
Sacrifice Theory bass
6 To bass
What Ever I Do bass
Miss Murder Intro bass
Sts Hidden Song bass
Sts Hidden Track bass
Now The World bass
Triple Zero bass
Miss Murder 100% Correct bass


Guitar Tabs









All tabs are property and copyright of their owners. All tabs provided for educational purposes only. Privacy Policy, DMCA