Afi

Consult My Lover Tabs



More from Afi

Afi Tabs
Afi Chords
Afi Bass
Afi Lyrics



-------------------------------------------------------------------------------
CONSULT MY LOVER - AFI
-------------------------------------------------------------------------------

Intro and bridge are both just Open E

Verse:
e-|-----------------------------------------------------------------|
B-|-----------------------------------------------------------------|
G-|-----------------------------------------------------------------|
D-|-9-9-9-9---------7-7-7-7---------5-5-5-5---------9-9-9-9---------|
A-|-7-7-7-7-5-5-5-5-5-5-5-5-7-7-7-7-3-3-3-3-5-5-5-5-7-7-7-7-7-7-7-7-|
E-|---------3-3-3-3---------5-5-5-5---------3-3-3-3---------5-5-5-5-|

Chorus:
e-|------------------------------------------|
B-|------------------------------------------|
G-|------------------------------------------|
D-|-9-9-9-7-9-9-9-12-9-9-9-7---------7-7-7-7-|
A-|-7-7-7-5-7-7-7-10-7-7-7-5-5-5-5-5-5-5-5-5-|
E-|--------------------------3-3-3-3---------|

-------------------------------------------------------------------------------


Get this song at amazon.com      Ebay     Ringtones Ringtones  


Learn to play: Songwriting, Piano, Harmonica, Guitar
Also available at Muzikum: AFI - Consult My Lover lyrics

Related Afi Tabs

3 12 Bass tabs
Days Of The Phoenix tabs
Fishbowl tabs
Kill Caustic Power tabs
3 12 tabs
Dream Of Waking tabs
Lost Souls tabs
The Secret Ninja tabs
Three And A Half tabs
Black Sails In The Sunset tabs
Consult My Lover tabs
6 To 8 (perfect) tabs
Soap Box Derby tabs
Interview tabs
Prelude 12/21 tabs
Missing Frame tabs
Silver & Cold tabs
Yurf Rendenmein tabs
The Nephilim Bass tabs
Three Seconds Notice tabs


Guitar Tabs









All tabs are property and copyright of their owners. All tabs provided for educational purposes only. Privacy Policy, DMCA