Afi

Consult My Lover Bass Tabs



More from Afi

Afi Tabs
Afi Chords
Afi Bass
Afi Lyrics



Afi
Consult My Lover

ntro:
E-|-0-0-0--|
A-|--------|
D-|--------|
G-|--------|

Verse:
G-|-----------------------------------------------------------------|
D-|-----------------------------------------------------------------|
A-|-7-7-7-7---------5-5-5-5---------3-3-3-3---------7-7-7-7---------|
E-|---------3-3-3-3---------5-5-5-5---------3-3-3-3---------5-5-5-5-|

Chorus (Every time they say "Proud" hit either the 5 or the 10):
G-|------------------------------------------|
D-|------------------------------------------|
A-|-7-7-7-5-7-7-7-10-7-7-7-5---------5-5-5-5-|
E-|--------------------------3-3-3-3---------|

Bridge
E-|-0000000000000000000000000--|
A-|----------------------------|
D-|----------------------------|
G-|----------------------------|
G-|



Get this song at amazon.com      Ebay     Ringtones Ringtones  


Learn to play: Songwriting, Piano, Harmonica, Guitar
Also available at Muzikum: AFI - Consult My Lover lyrics

Related Afi Bass Tabs

Ever And A Day bass
Death Of Seasons bass
God Called In Sick Today bass
Miss Murder (correct Bridge) bass
Perfect Fit bass
The Days Of The Phoenix bass
Miss Murder bass
Love Is A Many Splendored Thing bass
The Leaving Song Pt 2 bass
Miss Murder (correct! G D A D Tuning) bass
What Ever I Do bass
The Despair Factor bass
A Story At Three bass
Wester bass
Girls Not Grey bass
Transference bass
Half Empty Bottle bass
A Single Second bass
Lower It bass
Weathered Tomb bass


Guitar Tabs









All tabs are property and copyright of their owners. All tabs provided for educational purposes only. Privacy Policy, DMCA