Afi

Charles Atlas Bass Tabs



More from Afi

Afi Tabs
Afi Chords
Afi Bass
Afi Lyrics



Charles Atlas
-AFI
Tabbed by Joey Lombardi (permanentwaves@hotmail.com)

Standard Tuning (G,D,A,E)


Intro

G|------------------------|
D|------------------------|
A|---Slide----------------|
E|-8///////0--------------|

Verse Riff 1

G|-----------------------------------------|
D|-----------------------------------------|
A|-----------------------------3-3---------|
E|-5-5-5-5-5-5-5-5-1-1-1-1-0-0-------------|

Verse Riff 2

G|-----------------------------------------------------------------|
D|-----------------------------------------------------------------|
A|-5-5-5-5-5-5-5-5-----------------5-5-5-5-5-5-5-5-------------8-8-|
E|-----------------6-6-6-6-5-5-5-5-----------------6-6-6-6-5-5-----|

G|-----------------------------------------------------------------|
D|-----------------------------------------------------------------|
A|-5-5-5-5-5-5-5-5-------------------------------------------------|
E|-----------------6-6-6-6-5-5-5-5-8-8-8-8-8-8-8-8-6-6-6-6-3-3-3-3-|

Prechorus

G|--------------------------------|
D|--------------------------------|
A|--------------------------------|
E|-8---8-8-----6-6-6-6-3-3-3-3----|

Chorus

G|----------------------------------------|
D|----------------------------------------|
A|-----------------3-3-3-3-5-5-5-5--------|
E|-3-3-3-3-0-0-0-0------------------------|

Pre-verse

G|----------------------------------------|
D|----------------------------------------|
A|-3-3-3-3-3-3-3-3-5-5-5-5-12////5--------|
E|----------------------------------------|

Pre-verse 2

G|----------------------------------------|
D|----------------------------------------|
A|-3-3-3-3-3-3-3-3-5-5-5-5-5-5-5-5--------|
E|----------------------------------------|

Guitar Solo

G|-----------------------------------------------------------------|
D|-----------------------------------------------------------------|
A|-----------------------------3-3-----------------------------3-3-|
E|-5-5-5-5-5-5-5-5-3-3-3-3-0-0-----5-5-5-5-5-5-5-5-3-3-3-3-0-0-----|

G|------------------------------------|
D|------------------------------------|
A|------------------------------------|
E|-1-1-1-1-1-1-1-1-3-3-3-3-3-3-3-3----|

Bass Fill

G|-------------------------|
D|---------5---5-7---------|
A|-----5-7---7-------------|
E|-8/5---------------------|

Ending 1

G|----------------------------------------|
D|----------------------------------------|
A|-----------------5-5-5-5-7-7-7-7--------|
E|-5-5-5-5-2-2-2-2------------------------|

Ending 2

G|----------------------------------------|
D|-7-7-7-4-4-4-4-4------------------------|
A|-----------------5-5-5-7-7-7-7-7--------|
E|----------------------------------------|

Play:

Intro..........x1
Verse Riff 1...x4
Verse Riff 2...x2
Prechorus......x2
Chorus.........x4
Pre-Verse......x1
Verse Riff 2...x2
Prechorus......x2
Chorus.........x4
Pre-Verse 2....x1
Guitar Solo....x1
--Pause--
Bass Fill......x1
Ending 1.......x4
Ending 2.......x4

Strum at will. End on an "A".

Taken from The BassMasta -- http://www.tabs-database.com



Get this song at amazon.com      Ebay     Ringtones Ringtones  


Learn to play: Songwriting, Piano, Harmonica, Guitar
Also available at Muzikum: AFI - Charles Atlas lyrics

Related Afi Bass Tabs

Key Lime Pie bass
Triple Zero bass
Days Of The Phoenix bass
Leaving Song Part 2 bass
Halloween bass
Miss Murder (i Hope This Is Good It Took Me Forever To Finish) bass
Cult Status bass
Let It Be Broke bass
Cereal wars bass
Rizzo In The Box bass
Love Like Winter bass
Bleed Black bass
6 To bass
Girls Not Grey bass
Brownie Bottom Sundae bass
Take The Test bass
Who Knew bass
Advances In Modern Technology bass
Ph Low bass
Keeping Out Of Direct Sunlight bass


Guitar Tabs









All tabs are property and copyright of their owners. All tabs provided for educational purposes only. Privacy Policy, DMCA