Afi

Carcinogen Crush Bass Tabs



More from Afi

Afi Tabs
Afi Chords
Afi Bass
Afi Lyrics

                               Carcinogen Crush





AFI

Hunter Bugan (Bass)



I did this on Guitar Pro, but I only did the bass so far ('cuz I'm a bassist, and I love

bass lines)

I'll submit a Guitar Pro tab later on with everything in a while. Oh, and this song is

to be on AFI's new EP in

December 2007 if you're wondering about how I found this song. You can get it as a

from the XBOX Marketplace if

you buy the Guitar Hero 3 Companion Pack CD.



W W W

F#||-------------------|-------------------|-------------------|

C#||-------------------|-------------------|-------------------|

G#||-------------------|-------------------|-------------------|

D#||-------------------|-------------------|-------------------|





W E E E E E E E E E E E E E E E E

-------------------|--------------------------|--------------------------|

-------------------|--------------------------|--------------------------|

-------------------|--------------------------|--------------------------|

-------------------|--5--5--5--5--5--5--5--5--|--5--5--5--5--5--5--5--5--|





E E E E E E E E E E E E E E E E

--------------------------|--------------------------|

--------------------------|--------------------------|

--------------------------|--------------------------|

--5--5--5--5--5--5--5--5--|--5--3--2--1--3--2--1--0--|





E E E E E E E E E E E E E E E E

--------------------------|--------------------------|

--------------------------|--------------------------|

--------------------------|--------------------------|

--5--5--5--5--5--5--5--5--|--5--5--5--5--5--5--5--5--|





E E E E E E E E E E E E E E E E

--------------------------|--------------------------|

--------------------------|--------------------------|

--------------------------|--------------------------|

--1--1--1--1--1--1--1--1--|--1--1--1--1--1--1--1--1--|





E E E E E E E E E E E E E E E E

--------------------------|--------------------------|

--------------------------|--------------------------|

--3--3--3--3--3--3--3--3--|--3--3--3--3--3--3--3--3--|

--------------------------|--------------------------|





E E E E E E E E E E E E E E E E

--------------------------|--------------------------|

--------------------------|--------------------------|

--------------------------|--------------------------|

--3--3--3--3--3--3--3--3--|--3--3--3--3--3--3--3--3--|





E E E E E E E E E E E E E E E E

--------------------------|--------------------------|

--------------------------|--------------------------|

--------------------------|--------------------------|

--5--5--5--5--5--5--5--5--|--5--5--5--5--5--5--5--5--|





E E E E E E E E E E E E E E E E

--------------------------|--------------------------|

--------------------------|--------------------------|

--------------------------|--------------------------|

--1--1--1--1--1--1--1--1--|--1--1--1--1--1--1--1--1--|





E E E E E E E E E E E E E E E E

--------------------------|--------------------------|

--------------------------|--------------------------|

--3--3--3--3--3--3--3--3--|--3--3--3--3--3--3--3--3--|

--------------------------|--------------------------|





E E E E E E E E E E E E E E E E

--------------------------|--------------------------|

--------------------------|--------------------------|

--------------------------|--------------------------|

--3--3--3--3--3--3--3--3--|--3--3--3--3--3--3--3--3--|





E E E E E E E E E E E E E E E E

--------------------------|--------------------------|

--------------------------|--------------------------|

--------------------------|--------------------------|

--5--5--5--5--5--5--5--5--|--1--1--1--1--1--1--1--1--|





E E E E E E E E E E E E E E E E

--------------------------|--------------------------|

--------------------------|--------------------------|

--------------------------|--3--3--3--3--------------|

--3--3--3--3--3--3--3--3--|--------------3--3--3--3--|





E E E E E E E E E E E E E E E E

--------------------------|--------------------------|

--------------------------|--------------------------|

--------------------------|--3--3--3--3--3--3--3--3--|

--1--1--1--1--1--1--1--1--|--------------------------|





E E E E E E E E E E E E E E E E W

--------------------------|--------------------------|-------------------|

--------------------------|--------------------------|-------------------|

--------------------------|--------------------------|-------------------|

--3--3--3--3--3--3--3--3--|--3--3--3--3--3--3--3--3--|-------------------|





W W W W

-------------------|-------------------|-------------------|-------------------|

-------------------|-------------------|-------------------|-------------------|

-------------------|-------------------|-------------------|-------------------|

-------------------|-------------------|-------------------|-------------------|





W W W

-------------------|-------------------|-------------------|

-------------------|-------------------|-------------------|

-------------------|-------------------|-------------------|

-------------------|-------------------|-------------------|





E E E E E E E E E E E E E E E E

--------------------------|--------------------------|

--------------------------|--------------------------|

--------------------------|--------------------------|

--5--5--5--5--5--5--5--5--|--5--5--5--5--5--5--5--5--|





E E E E E E E E E E E E E E E E

--------------------------|--------------------------|

--------------------------|--------------------------|

--------------------------|--------------------------|

--3--3--3--3--3--3--3--3--|--3--3--3--3--3--3--3--3--|





E E E E E E E E E E E E E E E E

--------------------------|--------------------------|

--------------------------|--------------------------|

--3--3--3--3--3--3--3--3--|--3--3--3--3--3--3--3--3--|

--------------------------|--------------------------|





E E E E E E E E E E E E E E E E

--------------------------|--------------------------|

--------------------------|--------------------------|

--------------------------|--------------------------|

--1--1--1--1--1--1--1--1--|--1--1--1--1--1--1--1--1--|





E E E E E E E E E E E E E E E E

--------------------------|--------------------------|

--------------------------|--------------------------|

--------------------------|--------------------------|

--5--5--5--5--5--5--5--5--|--1--1--1--1--1--1--1--1--|





E E E E E E E E E E E E E E E E

--------------------------|--------------------------|

--------------------------|--------------------------|

--------------------------|--3--3--3--3--------------|

--3--3--3--3--3--3--3--3--|--------------3--3--3--3--|





E E E E E E E E E E E E E E E E

--------------------------|--------------------------|

--------------------------|--------------------------|

--------------------------|--3--3--3--3--3--3--3--3--|

--1--1--1--1--1--1--1--1--|--------------------------|





E E E E E E E E E E E E E E E E

--------------------------|--------------------------|

--------------------------|--------------------------|

--------------------------|--------------------------|

--3--3--3--3--3--3--3--3--|--5--5--5--5--5--5--5--5--|





E E E E E E E E E E E E E E E E

--------------------------|--------------------------|

--------------------------|--------------------------|

--------------------------|--------------------------|

--1--1--1--1--1--1--1--1--|--3--3--3--3--3--3--3--3--|





E E E E E E E E E E E E E E E E

--------------------------|--------------------------|

--------------------------|--------------------------|

--3--3--3--3--------------|--------------------------|

--------------3--3--3--3--|--1--1--1--1--1--1--1--1--|





E E E E E E E E E E E E E E E E

--------------------------|--------------------------|

--------------------------|--------------------------|

--3--3--3--3--3--3--3--3--|--------------------------|

--------------------------|--3--3--3--3--3--3--3--3--|





E E E E E E E E E E E E E E E E

--------------------------|--------------------------|

--------------------------|--------------------------|

--------------------------|--------------3--3--3--3--|

--3--3--3--3--3--3--3--3--|--3--3--3--3--------------|





E E E E E E E E E E E E E E E E

--------------------------|--------------------------|

--------------------------|--------------------------|

--------------3--3--3--3--|--------------------------|

--3--3--3--3--------------|--5--5--5--5--5--5--5--5--|





E E E E E E E E E E E E E E E E

--------------------------|--------------------------|

--------------------------|--------------------------|

--------------------------|--------------3--3--3--3--|

--5--5--5--5--5--5--5--5--|--3--3--3--3--------------|





E E E E E E E E E E E E E E E E

--------------------------|--------------------------|

--------------------------|--------------------------|

--------------3--3--3--3--|--------------------------|

--3--3--3--3--------------|--5--5--5--5--5--5--5--5--|





E E E E E E E E E E E E E E E E

--------------------------|--------------------------|

--------------------------|--------------------------|

--------------------------|--------------3--3--3--3--|

--5--5--5--5--5--5--5--5--|--3--3--3--3--------------|





E E E E E E E E E E E E E E E E

--------------------------|--------------------------|

--------------------------|--------------------------|

--------------3--3--3--3--|--------------------------|

--3--3--3--3--------------|--5--5--5--5--5--5--5--5--|





E E E E E E E E E E E E E E E E

--------------------------|--------------------------|

--------------------------|--------------------------|

--------------------------|--------------3--3--3--3--|

--5--5--5--5--5--5--5--5--|--3--3--3--3--------------|





E E E E E E E E E E E E E E E E

--------------------------|--------------------------|

--------------------------|--------------------------|

--------------3--3--3--3--|--------------------------|

--3--3--3--3--------------|--5--5--5--5--5--5--5--5--|





E E E E E E E E E E E Q Q E E E E Q E E E

--------------------------|------------------------|-------------------------|

--------------------------|------------------------|-------------------------|

--------------------------|----------------5----3--|--L--3--3----------------|

--5--5--5--5--5--5--5--5--|--3--5--5---------------|-----------3----3--3--3--|





E E E Q Q E E E E Q E E E E E E Q Q E

------------------------|-------------------------|------------------------|

------------------------|-------------------------|------------------------|

----------------5----3--|--L--3--3----------------|----------------5----3--|

--3--5--5---------------|-----------3----3--3--3--|--3--5--5---------------|





E E E Q E E E E E E Q Q E E E E Q E E E

-------------------------|------------------------|-------------------------|

-------------------------|------------------------|-------------------------|

--L--3--3----------------|----------------5----3--|--L--3--3----------------|

-----------3----3--3--3--|--3--5--5---------------|-----------3----3--3--3--|





W E E H. W

-------------------|---------------------|-------------------|

-------------------|---------------------|-------------------|

-------------------|---------------------|-------------------|

--5----------------|-----3--5------------|-------------------|





W E E E E E E E E E E E E E E E E

-------------------|--------------------------|--------------------------|

-------------------|--------------------------|--------------------------|

-------------------|--------------------------|--------------------------|

-------------------|--5--5--5--5--5--5--5--5--|--1--1--1--1--1--1--1--1--|





E E E E E E E E E E E E E E E E

--------------------------|--------------------------|

--------------------------|--------------------------|

--------------------------|--3--3--3--3--------------|

--3--3--3--3--3--3--3--3--|--------------3--3--3--3--|





E E E E E E E E E E E E E E E E

--------------------------|--------------------------|

--------------------------|--------------------------|

--------------------------|--3--3--3--3--3--3--3--3--|

--1--1--1--1--1--1--1--1--|--------------------------|





E E E E E E E E E E E E E E E E

--------------------------|--------------------------|

--------------------------|--------------------------|

--------------------------|--------------------------|

--3--3--3--3--3--3--3--3--|--3--3--3--3--3--3--3--3--|





E E E E E E E E E E E E E E E E W

--------------------------|--------------------------|-------------------|

--------------------------|--------------------------|-------------------|

--------------------------|--------------------------|-------------------|

--5--5--5--5--5--5--5--5--|--5--5--5--5--5--5--5--5--|--5----------------|





S S S S S S S S S S S S S S S S E E E E E E E E

----------------------------------|--------------------------|

----------------------------------|--------------------------|

----------------------------------|--------------------------|

--0-0-0-0-0-0-0-0-0-0-0-0-0-0-0-0-|--5--5--5--5--5--5--5--5--|





E E E E E E E E E E E E E E E E

--------------------------|--------------------------|

--------------------------|--------------------------|

--------------------------|--------------------------|

--5--5--5--5--5--5--5--5--|--5--5--5--5--5--5--5--5--|





E E E E E E E E E E E E E E E E

--------------------------|--------------------------|

--------------------------|--------------------------|

--------------------------|--------------------------|

--5--5--5--5--5--5--5--5--|--5--5--5--5--5--5--5--5--|





E E E E E E E E E E E Q E E E H E E E E

--------------------------|-------------------------|-----------------------|

--------------------------|----------------------3--|--L--------------------|

--------------------------|----------------3--------|-----------3--3--3-----|

--5--5--5--5--5--5--5--5--|--5--5--5----------------|--------------------5--|





W

-------------------||

-------------------||

-------------------||

-------------------||





Duration Legend

---------------

W - whole

H - half

Q - quarter

E - 8th

S - 16th

T - 32nd

X - 64th

. - note dotted

|-n-| - n-tuplets





Tablature Legend

----------------

L - tied note

x - dead note

g - grace note

(n) - ghost note

> - accentuded note

NH - natural harmonic

AH - artificial harmonic

TH - tapped harmonic

SH - semi harmonic

PH - pitch harmonic

h - hammer on

p - pull off

b - bend

br - bendRelease

pb - preBend

pbr - preBendRelease

brb - bendReleaseBend


/ - tremolo bar dip


- tremolo bar dive

-/n - tremolo bar Release up

/n\ - tremolo bar inverted dip

/n - tremolo bar return

-
- tremolo bar Release down

S - shift slide

s - legato slide

/ - slide into from below or out of upwards

\ - slide into from above or out of downwards

~ - vibrato

W - wide vibrato

tr - trill

TP - tremolo picking

T - tapping

S - slap

P - pop

Added by tabs-database.com and our distinguished partners
Get this song at amazon.com      Ebay     Ringtones Ringtones  


Learn to play: Songwriting, Piano, Harmonica, Guitar
301 Moved Permanently

Moved Permanently

The document has moved here.

Related Afi Tabs

The Mother In Me Bass tabs
File13 tabs
Love Is A Many Splendored Thing tabs
Silver & Cold tabs
A Winter's Tale tabs
Affliction tabs
Three Reasons tabs
3 1 2 tabs
Transference tabs
Battled tabs
6 To 8 Bass tabs
Hearts Frozen Soil Sod Once More By The Spring Of Rage Despair And Hoplessness tabs
Single Second tabs
Miseria Cantare- The Beginning tabs
3 12 tabs
The Last Kiss Intro tabs
A Winters Tale tabs
Fishbowl tabs
Open Your Eyes Bass tabs
At A Glance tabs


Guitar Tabs




All tabs are property and copyright of their owners. All tabs provided for educational purposes only. Privacy Policy, DMCA