Afi

But Home Is Nowhere Tabs



More from Afi

Afi Tabs
Afi Chords
Afi Bass
Afi Lyrics



AFI
...But Home is Nowhere

Standard tuning

Tabbed by: Nathan (ModestMouseMan)

~ = Hold note
/ = Slide


Well, here's my 2 cents for this awesome song. Sorry, I know the rhythm is off.


intro
e---------------------------------------------------|
b---------------------------------------------------|
g---------------------------------------------------|
d----4-4-4-4-(4x)-7-7-7-7-7-7-7-7---------6-6-6-6---|
a---------------------------------7-7-7-7-----------|
E---------------------------------------------------|

distortion comes in at about 0:36
Just play the intro again and play this riff over it,
its kind of hard to hear but i think it might be right and I know
Jade doesn't usually play just the standard "powerchords" all the time.

e----------------------------------------------------------------------------------|
b----------------------------------------------------------------------------------|
g-2-2--------------2-2-6-6-6-6-6-6-6-6---------4-4-4-4-2-2-2-2-2-2-2-2-------------|
d-4-4--4-4-4-4-4-4-4-4-7-7-7-7-7-7-7-7-6-6-6-6-6-6-6-6-4-4-4-4-4-4-4-4---------6~--|
a--------------------------------------7-7-7-7--------------------------2--2---7~--|
E-----------------------------------------------------------------------0--0---0~--|
F#m Amaj Emaj G#m F#m EMaj
|PM=====================================================|


Chorus -
e---------------------------------------------------------------------------------------|
b----5----0----2-------------5---0---2------------5---0---2-------------5~--------------|
g----6----1----2-------------6---1---2------------6---1---2-------------6~------2~------|
d----7----2----4-------------7---2---4------------7---2---4-------------7~--6~--4~------|
a----7----2----4-------------7---2---4------------7---2---4-------------7~--7~--4~------|
E----5--- 0----2-------------5---0---2------------5---0---2-------------5~--4~--2~------|
Amaj Emaj F#m


Lead (for chorus) i know i didnt tab the timing, but it sounds like jade just uses octaves.
e---------------------------------------------------------------------------------------|
b-----------------------------------------------------------------------5~--------------|
g----------------------------6--------------7--6--6---------------------6~------2~------|
d--------------7--6---9---7--7--------7--6--x--x--7--------7--6--9--7---7~--6~--4~------|
a--------------x--x---x---x--7--------x--x--5--4--7--------x--x--x--x---7~--7~--4~------|
E--------------5--4---7---5--5--------5--4--------5--------5--4--7--5---5~--4~--2~------|
AMaj AMaj

intro 1x with distortion
e---------------------------------------------------------|
b---------------------------------------------------------|
g---------------------------------------------------------|
d--4-4-4-4-4-4-4-4-4-4-4-4-7-7-7-7-7-7-7-7-------6-6-6-6--|
a-----------------------------------------7-7-7-7---------|
E---------------------------------------------------------|
PM======================================================


e----------------------------------------------------------|
b----------------------------------------------------------|
g--------------------------6-6-6-4-4-4----4-4-4------------|
d--4-4-4-4-4-4-4-4-4-4-4-4------------7-7-------7-7-7-6-6--|
a----------------------------------------------------------|
E----------------------------------------------------------|
PM==========


Play this twice, 2nd time isn't palm muted
e------------------------------------------------------------|
b------------------------------------------------------------|
g----------2-2-2-2-2-2-2-2-6-6-6-6-6-6-6-6-6---------4-4-4-4-|
d--4-4-4-4-4-4-4-4-4-4-4-4-7-7-7-7-7-7-7-7-7-6-6-6-6-6-6-6-6-|
a--------------------------------------------7-7-7-7---------|
E------------------------------------------------------------|
PM=======================================================

Then play this
e------------0~~-0----------------------------|
b------------5~~-5-5--------------------------|
g----6~~6-6--6~~-6-6--4~--6~-6-6--------------|
d----4~~4-4-~---------6~--4~-4-4--------6~----|
a---------------------------------2--2--7~----|
E---------------------------------0--0--0~----|

Chorus again

Then play this a few times. It's palm muted

e--------------------------------------------------------|
b--------------------------------------------------------|
g--------------1-1-1-1------2-2-2-2------4-4-4-4---------|
d--4-4-4-4(2x)-4-4-4-4-(2x)-4-4-4-4-(2x)-4-4-4-4-(2x)----|
a--------------------------------------------------------|
E--------------------------------------------------------|


Keep play this until the bridge.

e-------------------------------------------------------------------|
b-------------------------------------------------------------------|
g---------2-2-2-2---------4-4-4-4---------6-6-6-6---------7-7-7-7---|
d-4-4-4-4-4-4-4-4-6-6-6-6-6-6-6-6-7-7-7-7-7-7-7-7-9-9-9-9-9-9-9-9---|
a-------------------------------------------------------------------|
E-------------------------------------------------------------------|

Here's the build up part to the bridge
e-------------------------------------------------|
b-------------------------------------------------|
g--11-11-11-11/-13-13-13-13/--14-14-14-14/--16----|
d--x--x--x--x---x--x--x--x----x--x--x--x----x-----|
a--9--9--9--9/--11-11-11-11/--12-12-12-12/--14----|
E-------------------------------------------------|


Bridge 4x
e--------------------------------------------|
b--10--10-10-10------------------------------|
g--11--11-11-11---7-7-7-7--2-2-2-2/-2-2-2-2--|
d--11--11-11-11---9-9-9-9--3-3-3-3/-4-4-4-4--|
a--9---9--9--9----9-9-9-9--3-3-3-3/-4-4-4-4--|
E--9---9--9--9----7-7-7-7--1-1-1-1/-2-2-2-2--|
F#m Bm Fmaj F#m

Heres the riff over the bridge (2nd time)
e---------------------------------------------|
b-----10-----------7---------1-1-1-1--2-2-2-2-|
g-----11--11/-14---7---------2-2-2-2--2-2-2-2-|
d-----11--x----x---9-9/-12---3-3-3-3--4-4-4-4-|
a-----9---9/--12---9-x--x----3-3-3-3--4-4-4-4-|
E------------------7-7/-10---1-1-1-1--2-2-2-2-|


The second riff over the bridge (3rd and 4th time)
e----------------------------------------------------------------------------------------------|
b----------------------------------------------------------------------------------------------|
g-11-11-11-11/------10-10-10-10/-11-11-11-11---14--14-14-14/-16-16-16-16-16/-13-13-13-13/-11~~-|
d-x--x--x--x--(2x)--x--x--x--x---x--x--x--x----x---x--x--x---x--x--x---x--x--x--x--x--x---x----|
a-9--9--9--9/-------8--8--8--8/--9--9--9--9----12--12-12-12/-14-14-14-14-14/-11-11-11-11/-9~~--|
E----------------------------------------------------------------------------------------------|

Repeat Chorus until the end


Well guys, hope this isn't too bad. Like I said I know the rhythm is off on some parts.
E-mail any comments to wafflecoon@hotmail.com
Have fun


Get this song at amazon.com      Ebay     Ringtones Ringtones  


Learn to play: Songwriting, Piano, Harmonica, Guitar
Also available at Muzikum: AFI - ...but Home Is Nowhere lyrics

Related Afi Tabs

Silver And Cold tabs
Born In The Usa tabs
Values Here tabs
But Home Is Nowhere tabs
Cult Status tabs
The Praying Position tabs
Three Seconds Notice tabs
Lithium tabs
You Make Me Ill tabs
Love Is A Many Splendored Thing tabs
Miss Murder Bass tabs
37 mm tabs
Hearts Frozen Soil Thawed tabs
Of Greetings And Goodbyes Intro tabs
Whatever I Do tabs
This Time Imperfect Power tabs
37mm Bass tabs
3 1 2 tabs
Interview tabs
Rizzo In The Box tabs


Guitar Tabs









All tabs are property and copyright of their owners. All tabs provided for educational purposes only. Privacy Policy, DMCA