Afi

Bleed Black Tabs



More from Afi

Afi Tabs
Afi Chords
Afi Bass
Afi Lyrics

1/2 Step Down



Intro (1)

|----------------------|

|----------------------|

|-9---9---9-9---9------|

|---7---7-----7---7----|

|----------------------|

|----------------------|



(2)

|------------------------------------------------------------|

|------------------------------------------------------------|

|-10---10---10-10---10---7---7---7-7---7---9---9---9-9---9---|

|----7----7-------7----7---7---7-----7---7---7---7-----7---7-|

|------------------------------------------------------------|

|------------------------------------------------------------|



|------------------------------------------------------------|

|------------------------------------------------------------|

|-10---10---10-10---10---7---7---7-7---7---9---9---9-9---9---|

|----7----7-------7----7---7---7-----7---7---7---7-----7---7-|

|------------------------------------------------------------|

|------------------------------------------------------------|

Fill(1)

|-------------------------|

|-------------------------|

|-8-8-8-8-8-8-8-8-8-8-8-8-|

|-6-6-6-6-6-6-6-6-6-6-6-6-| I'm not quite sure how many times you do that..

|-0-0-0-0-0-0-0-0-0-0-0-0-|

|-------------------------|



Verse

|------------------------------------------------|

|------------------------------------------------|

|-9999-777777-9999-555555-9999-10-10-10-10-10-10-|

|-7777-777777-7777-777777-7777-7--7--7--7--7--7--|

|-0000-000000-0000-000000-0000-0--0--0--0--0--0--|

|------------------------------------------------|



|--------------------|

|--------------------|

|----9-----9-9---9---|

|------7-------7---7-|

|--8-----8-----------|

|--------------------|



Fill (2)

2 times its played like this, but not in a row but, youl get it

|---------------------|

|----------------8----|

|----9-----9-9--------|

|------7-------7------|

|--8-----8------------|

|---------------------|



|-------------------------------|

|-------------------------------|

|-12-12-12-12-12-12-12-12-12-12-|

|-12-12-12-12-12-12-12-12-12-12-|

|-10-10-10-10-10-10-10-10-10-10-|

|-------------------------------|



Pre-chorus

(1) (2) (3)

|-------------------|-------------|--------------|

|-------------------|-------------|--------------|

|-----------------2-|------555555-|--------------|

|-----------------2-|-3333-555555-|-555555555555-|

|-888-000-333-000-0-|-3333-333333-|-555555555555-|

|-------------------|-1111-333333-|-333333333333-|





Chorus (1)

|-------------------------|--------------------------|

|-------------------------|--------------------------|

|-5555--------------------|-5555---------------------|

|-5555-555555-3333-777777-|-5555-555555-777777777777-|

|-3333-555555-3333-777777-|-3333-555555-777777777777-|

|------333333-1111-555555-|------333333-555555555555-|



(2)

|-------------------------|-------------|

|-------------------------|-------------|

|-5555--------------------|-5555--------|

|-5555-555555-3333-777777-|-5555-555555-|

|-3333-555555-3333-777777-|-3333-555555-|

|------333333-1111-555555-|------333333-|



Bridge

|--------------------------------------------------|---5-------|

|--------------------------------------------------|-----5-----|

|--------------------------------------------------|-------5---|

|----------------------333333--------555555--------|---------7-|

|-333333-222222-222222-555555-333333-333333-222222-|-0---------|

|-555555-444444-333333--------111111--------000000-|-----------|

Palm Muted, unless on an acoustic

Fill (3)

|--------------------|

|--------------------|

|-14-14-14--13-13-13-|

|--------------------|

|-12-12-12--11-11-11-|

|--------------------|



Bridge (2)

|-8----8----8---8---8---8----10---10----8----8--8--8-12-|

|--10---10---9---9---8---8--7----7----10---10--8--8--9--|

|9----9----9---9---9---9---7----7---10---10---9--9---9--|

|-------------------------------------------------------|

|-------------------------------------------------------|

|-------------------------------------------------------|



{order}



Intro x4

Intro (2)

Fill (1)

Verse x3

Fill (2)

Pre-Chorus (1) x3

Pre-Chorus (2)

Pre-Chorus (1) x3

Pre-Chorus (2)

Pre-Chorus (3)

Chorus (1)

Chorus (2)

Pre-Chorus (1)

Verse x3

Fill (2)

Pre-Chorus (1) x3

Pre-Chorus (2)

Pre-Chorus (1) x3

Pre-Chorus (2)

Pre-Chorus (3)

Chorus (1)

Chorus (2)

Pre-Chorus (1)

Bridge (1) x2

Bridge (1) Heavy

Fill (3)

Bridge (1) Heavy

Bridge (2)

Intro

Fill (1)

Chorus (1)

Chorus (2)

Chorus (1)

Chorus (2)

Pre-Chorus (1)

Get this song at amazon.com      Ebay     Ringtones Ringtones  


Learn to play: Songwriting, Piano, Harmonica, Guitar
Also available at Muzikum: AFI - Bleed Black lyrics

Related Afi Tabs

Fishbowl tabs
The Last Kiss tabs
I Wanna Get A Mohawk Bass tabs
Days Of The Phoenix Exact tabs
Keeping Out Of Direct Sunlight tabs
Porphyria tabs
Dont Make Me Ill tabs
Days Of The Pheonix tabs
This Celluloid Dream tabs
Bleed Black tabs
Paper Airplanes (makeshift Wings) tabs
The Interview tabs
But Home Is Nowhere Intro tabs
6 To 8 (perfect) tabs
The missing frame tabs
3 1 2 tabs
The Leaving Song tabs
File 13 tabs
I Dont Wanna Fuck You tabs
Girls Not Grey tabs


Guitar Tabs









All tabs are property and copyright of their owners. All tabs provided for educational purposes only. Privacy Policy, DMCA