Afi

Black Sails In The Sunset Tabs



More from Afi

Afi Tabs
Afi Chords
Afi Bass
Afi Lyrics

1)STRENGHT THROUGH WOUNDING - AFI
-------------------------------------------------------------------------------
* = harmonic
fade-in:
e|------------|
B|------------|
G|------------|
D|------------|
A|----9-------|
E|----0-------|
INTRO:
those are just the chords
e|----------------------------------------12*----------|
B|-----------------------------------------------------|
G|-------------9---------------7*----------------------|
D|-7---7---2---9---7---6---2--------9*-----------------|
A|-5---5---2---7---5---6---2---------------------------|
E|-5---6---0-------5---3---0---------------------------|
(cont.)
e|-----------------------------------------------------|
B|-----------------------------------------------------|
G|-12-12/14--14/13----9--9/10/9------------------------|
D|-x--x---x---x--x----x--x--x-x------------------------|
A|-10-10/12--12/11----7--7/-8/7------------------------|
E|-----------------------------------------------------|
riff 1:
(through our bleeding, we are one...)
e|----------|
B|----------|
G|----------|
D|-2--------|
A|-2--------|
E|-0--------|
"till the darkness comes again"
e|------------|
B|------------|
G|------------|
D|-8----6-----|
A|-8----6-----|
E|-6----3-----|
outro:
"we are one."
e|------------------------|
B|------------------------|
G|-12--7--9----9--9-9-----|
D|-x---x--x----9--9-9-----|
A|-10--5--7----7--7-7-----|
E|---------------------
2)PORPHYRIA - AFI
-------------------------------------------------------------------------------
As with any tab, rhythm is really hard to express, so here are the chords.
Some of the chords don't really qualify to be actual "chords", but the chord
symbols I gave them just suggest their overall tonality.
Intro:
B5 G N.C. B5 E5
E|-------------------------|
B|-------------------------|
G|----------------------9--|
D|-----------------9----9--|
A|--9---10---12----9----7--|
E|--7----7----7----7----7--|
Verse:
E5 Bb5 A5 G5 C5 D5 G5 A5 G5 E5 Bb5 A5 G5 C5 D5 G5 A5 E5
E|-----------------------------------|-----------------------------------|
B|-----------------------------------|-----------------------------------|
G|-----------------5---7-------------|-----------------5---7-------------|
D|-2---8---7---5---5---7---5---7---5-|-2---8---7---5---5---7---5---7---2-|
A|-2---8---7---5---3---5---5---7---5-|-2---8---7---5---3---5---5---7---2-|
E|-0---6---5---3---3---5---3---5---3-|-0---6---5---3---3---5---3---5---0-|
Chorus:
C D G Em C D E5 C D G Em C D E5
E|--3----5----3----0--|--3----5-------|--3----5----3----0--|--3----5-------|
B|--5----7----3----0--|--5----7-------|--5----7----3----0--|--5----7-------|
G|--5----7----4----0--|--5----7-------|--5----7----4----0--|--5----7-------|
D|--5----7----5----2--|--5----7----2--|--5----7----5----2--|--5----7----2--|
A|--3----5----5----2--|--3----5----2--|--3----5----3----2--|--3----5----2--|
E|--3----5----3----0--|--3----5----0--|--3----5----3----0--|--3----5----0--|
Bridge: (Repeat first bar 3x, then second bar once)
E5 Bb5 A5 G5 A5 E5 G5 A5 B5 G N.C. B5 B Bsus4 B5
E|------------------------------|---------------------------------------------|
B|------------------------------|---------------------------------------------|
G|------------------------------|--------------------------------8----9---11--|
D|--2----8----7----5----7----2--|--5----7-------------------9-----------------|
A|--2----8----7----5----7----2--|--5----7----9---10---12----9-----------------|
E|--0----6----5----3----5----0--|--3----5----7----7----7----7----7----7----7--|
Outro: (Repeat 2x)
E5 E5 D5 C5 G5 A5 E5 E5 E5 D5 C5 G5 D5 E5
E|-----------------------------------|-----------------------------------|
B|-----------------------------------|-----------------------------------|
G|-------9----7----5-----------------|-------9----7----5---------7-------|
D|--2----9----7----5----5----7----2--|--2----9----7----5----5----7----2--|
A|--2----7----5----3----5----7----2--|--2----7----5----3----5----5----2--|
E|--0----7----5----3----3----5----0--|--0----7----5----3----3----5----0--|
And that's that. Please feel free to e-mail me with any corrections,
comments, typos, anything of that nature.
-------------------------------------------------------------------------------
3)EXSANGUINATION - AFI
-------------------------------------------------------------------------------
Instructions: find the beat and the P.M. yourself. It's easy
*= a few times the powerchord
Intro: (after bass)
e|---------------------------------------------------------------------------|
B|---------------------------------------------------------------------------|
G|-9-9-9-9-9-9--7-7-7---12-12-12--11-11-11--------------------------9-10-9---|
D|-9-9-9-9-9-9--X-X-X----X--X--X---X--X--X--2-2-2-5-7-7-2-2-2-5-5-7-X--X-X---|
A|-7-7-7-7-7-7--5-5-5---10-10-10---9--9--9--2-2-2-5-7-7-2-2-2-5-5-7-7--9-7---|
E|------------------------------------------0-0-0-3-5-5-0-0-0-3-3-5----------|
Riff 1:
e|------|
B|------|
G|--*---|
D|-2----|
A|-2----|
E|-0----|
Verse:
e|--------------------------------------------------------------------------------|
B|--------------------------------------------------------------------------------|
G|-9*-7*-5*----9*-7*-5*----------------9*-7*-5*----9*-7*-5*---------7-7-7-7--4*---|
D|-9--7--5--5*-9--7--5--5-X-X-X-5-5-4--9--7--5--5*-9--7--5--5-5-5-5-7-7-7-7--4--2-|
A|-7--5--3--5--7--5--3--5-X-X-X-5-5-4--7--5--3--5--7--5--3--5-5-5-5-5-5-5-5--2--2-|
E|----------3-----------3-X-X-X-3-3-2-----------3-----------3-3-3-3-------------0-|
1st chorus: bass only + play Riff 1 at the end
2nd verse:
e|-----------------------------------------------------------|
B|-----------------------------------------------------------|
G|--9*-7*-5*----------------9*-7*-5*---------7-7-7-7--4*-----|
D|--9--7--5--5-X-X-X-5-5-4--9--7--5--5-5-5-5-7-7-7-7--4--2---|
A|--7--5--3--5-X-X-X-5-5-4--7--5--3--5-5-5-5-5-5-5-5--2--2---|
E|-----------3-X-X-X-3-3-2-----------3-3-3-3-------------0---|
2nd chorus: bass only + play riff 1 at the end
bridge: (there are two guitar tracks so it's confusing, but this one is
good)
e|-------------------|
B|-------------------|
G|-9*-11*--12*--7*---|
D|-X---X----X---X----| play bridge 4X times
A|-7---9---10---5----|
E|-------------------|
2nd part of bridge:
e|-------------------------------------------------------|
B|-------------------------------------------------------|
G|-------7*-------7*---------------7*-------7*-------4*--|
D|-2--5*-7--2--5*-7--2-2-2-2-2--5*-7--2--5*-7----2*--4---|
A|-2--5--5--2--5--5--2-2-2-2-2--5--5--2--5--5----2---2---|
E|-0--3-----0--3-----0-0-0-0-0--3-----0--3-------0-------|
Last chorus:
2 times first part
e|-----------------|-----|
B|-----------------|-----|
G|-----5*------7*--|-----|
D|-2*--5---5*--7---|--2--|
A|-2---3---5---5---|--2--|
E|-0-------3-------|--0--|
4) MALLEUS MALIFICARUM - AFI
-------------------------------------------------------------------------------
pm - Palm Mute
/ - slide to
* - harmonic (on indicated fret)
Intro - (99% sure)
e|----------------7-------------------|
B|----------------8-------------------|
G|--7/99/12/9-----9------7/99/12/9----|
D|--7/99/10/9------------7/99/12/9----|
A|--5/77/10/7------------5/77/10/7----|
E|------------------------------------|
Verse -
e|-------------------|
B|-------------------|
G|-----------7-------|
D|--2-----5--7--7----|
A|--2-----5--5--7----|
E|--0-----3-----5----|
Pre-Chorus -
e|-----------------------|
B|-----------------------|
G|--7----12----10---12---|
D|-----------------------|
A|--9----10----12---14---|
E|-----------------------|
Chorus - "We all begin to burn"
e|--------------------------------------------------------------|
B|--------------------------------------------------------------|
G|-----7---------------7----------------7-----------------------|
D|--5--7-2--5/7-2---5--7--2222-2-----5--7-7-5-2--5555----77-----|
A|--5--5-2--5/7-2---5--5--2222-2-----5--5-7-5-2--5555----77-----|
E|--3----0--3/5-0---3-----0000-0-----3----9-3-0--3333----99-----|
pm... pm...
Chorus (#2) - "can you feel me? go!" (Play intro riff inbetween the
breakdown parts)
e|*12-----------------------------------------------------------------------|
B|*12------------------(2nd time is a guess?)-------------------------------|
G|*12---------7/99/12/9---7--7--------------11-12---------------------7-----|
D|------------7/99/10/9---7--7--2-----------11-12-2-------------------7-3-2-|
A|------------5/77/10/7---9--5--2-----------9--10-2-------------------5-3-2-|
E|------------------------------0-----------------0---------------------5-0-|
Bridge - (pm on and off for the octaves)
e|-------------------------------------------|
B|-------------------------------------------|
G|-----------9--10--mess with these then-----|
D|---2--------------break into the prechorus-|
A|---2-then--7--7----------------------------|
E|---0---------------------------------------|
pm............
Outro -
e|-----*12------------------------------------|
B|----------*12--*12--(just mess around here)-|
G|-*12-----------*12--------------------------|
D|--------------------------------------------|
A|--------------------------------------------|
E|--------------------------------------------|
6)CLOVE SMOKE CATHARSIS - AFI
-------------------------------------------------------------------------------
.
Intro: Repeat with this chord at the end:
|-----------------------------------------|------------------------------------|
|-----------------------------------------|------------------------------------|
|-----------------------------------------|------------------------------------|
|--7--7-7--7--7--7-7--7--7-7-7--7--7-7-7--|--------------------7-7--7-7--7-7---|
|--5--5-5--8--7--7-7--7--7-7-7--8--8-8-8--|--------------------5-5--5-5--5-5---|
|--5--5-5--5--5--5-5--6--6-6-6--6--6-6-6--|--------------------9-9--9-9--9-9---|
verse 1:
|--5-----5-------5-----5----------------------------------------------------|
|--6-------6-----5--------5-------------------------------------------------|
|--7--7-----7----7------------7--------------------------------7------------|
|--7--7----------7--7-----------7--7-----7---------7--7----------7----------|
|--5-------------------------------5---------5-----5--5------------5--------|
|--5-------------------------------6--6---------6--5--5--5-----------5------|
verse 1 (distorted guitar):
|--5--5-5-5--5--5-5--5-5---------------------------------------------|
|--6--6-6-6--5--5-5--5-5---------------------------------------------|
|--7--7-7-7--7--7-7--7-7--7--7-7-7-----------------------------------|
|--7--7-7-7--7--7-7--7-7--7--7-7-7--7--7-7-7--7-7--------------------|
|--5--5-5-5--5--5-5--5-5--5--5-5-5--5--5-5-5--5-5--------------------|
|--5--5-5-5--5--5-5--5-5--6--6-6-6--8--8-8-8--9-9--------------------|
chorus: (I'm not including the exact amount of strums here, just the chords)
on the second chord (A major) of the second measure of the chorus,
there is harmonics on the E string
|--5---5---6---8----10----------5---5---6---8----10--------------------|
|--6---5---6---8----10----------6---5---6---10---12--------------------|
|--7---6---7---9----10--9-------7---6---7---10---12----13--------------|
|--7---7---8---10---11----------7---7---8---10---12--------------------|
|--5---7---8---10---11--7-------5---7---8---8----10----11--------------|
|--5---5---6---8----9---x-------5---5---6---8----10--------------------|
verse 2 and chorus 2 are basically the same as the first except there is
less individually picked strings and the chorus is doubled with and extra
octave chord at the end:
G --16-
D -----
A -14--
Break:
At the end:
|--7---9---10---8---8-----------------9-------------------|
|--7---9---10--10---8-----------------9-------------------|
|--7---10--11--10---9----------------10-------------------|
|--9---11--12--10---10---------------11-------------------|
|--9---11--12---8---10---------------11-------------------|
|--7---9---10---8---8-----------------9-------------------|
Breakdown: (once again, the exact strums aren't represented)
At the end:
|---------------------------------------------------------|
|---------------------------------------------------------|
|--------------------------------10--9---------7----------|
|--7--7--7--7--7--7--10--11-------------------------------|
|--5--8--7--7--8--7--7----7------7---7---------5----------|
|--5--5--5--6--6--8--8----9------9---9--------------------|
repeat chorus and then finish out song on this octave chord:
G ---7---
D -------
A ---5---
7) THE prayer position
-------------------------
00:00 - Intro (use up down stroke):
e|-----0-0-0-0-0-0-0-0----0-0-0-0-0-0-0-0-0-0-0-0-0---|
B|---3/5-5-5-5-5-5-5-5--3/5-5-5-5-5-5-5-6-6-6-6-6-6---|
G|----------------------------------------------------| x3
D|----------------------------------------------------|
A|----------------------------------------------------|
E|----------------------------------------------------|
00:12 - then:
e|-----0-0-0-0-0-0-0-0----------------------|
B|---3/5-5-5-5-5-5-5-5----------------------|
G|--------------------9-9-9-9-9-------------|
D|--------------------9-9-9-9-9-------------|
A|--------------------7-7-7-7-7-------------|
E|--------------------7-7-7-7-7-------------|
00:16 - Verse 1 (Now peel the skin..):
e|-------------------------------------------------------------|
B|-------------------------------------------------------------|
G|--------------------------------------------------5----------|
D|-2-2222-2-222222322----2-2222-2-222222322-23--5---5---5/7----|
A|-2-2222-2-222222322----2-2222-2-222222322-23--5---3---5/7----|
E|-0-0000-0-000000000----0-0000-0-000000000-00--3---3---3/5----|
pm---xxx----xxxx-----------xxx----xxx-------------------x------|
e|-------------------------------------------------------------|
B|-------------------------------------------------------------|
G|--------------------------------------------------7----------|
D|-2-2222-2-222222322----2-2222-2-222222322-23--5---7----------|
A|-2-2222-2-222222322----2-2222-2-222222322-23--5---5----------|
E|-0-0000-0-000000000----0-0000-0-000000000-00--3---5----------|
pm---xxx----xxxx-----------xxx----xxx--------------------------|
00:40 - Pre-Chorus 1 (And in the distance, there's a gathering..):
e|----------------------------------|
B|----------------------------------|
G|----------------------------------|
D|---2~~--22~~----------------------|
A|---2~~--22~~--5/7-5/7-5/7-5/7-----|
E|---0~~--00~~--0~~-0~~-0~~-0~~-----|
pm--------x-------------------------|
00:48 - Chorus 1 (Pushed to our knees so let us pray..):
e|-------------------------------------------------------------|
B|-------------------------------------------------------------|
G|--55555--------77777-999999-55555--------7777775/7-----------|
D|--55555-555555-77777-999999-55555-555555-7777775/7-----------|
A|--33333-555555-55555-777777-33333-555555-5555553/5-----------|
E|--33333-333333-55555-777777-33333-333333-5555553/5-----------|
pm----xxx---xxxx---xxx---xxxx---xxx---xxxx---xx----------------|
e|-------------------------------------------------------------|
B|-------------------------------------------------------------|
G|--55555--------77777-999999-55555----------------------------|
D|--55555-555555-77777-999999-55555-555555-7~~~7-------7/9-----|
A|--33333-555555-55555-777777-33333-555555-7~~~7-pause-7/9-----|
E|--33333-333333-55555-777777-33333-333333-5~~~5-------5/7-----|
pm----xxx---xxxx---xxx---xxxx---xxx---xxxx---------------------|
01:05 - Verse 2 (Stature retrieved, regain our form..):
e|-------------------------------------------------------------|
B|-------------------------------------------------------------|
G|--------------------------------------------------5----------|
D|-2-2222-2-222222322----2-2222-2-222222322-23--5---5---5/7----|
A|-2-2222-2-222222322----2-2222-2-222222322-23--5---3---5/7----|
E|-0-0000-0-000000000----0-0000-0-000000000-00--3---3---3/5----|
pm---xxx----xxxx-----------xxx----xxx-------------------x------|
e|-------------------------------------------------------------|
B|-------------------------------------------------------------|
G|--------------------------------------------------7----------|
D|-2-2222-2-222222322--3-2-2222-2-222222322-23--5---7----------|
A|-2-2222-2-222222322--3-2-2222-2-222222322-23--5---5----------|
E|-0-0000-0-000000000----0-0000-0-000000000-00--3---5----------|
pm---xxx----xxxx-------h---xxx----xxx--------------------------|
01:29 - Pre-Chorus 2 (And in the distance, there's a gathering..):
e|----------------------------------|
B|----------------------------------|
G|----------------------------------|
D|---2~~--22~~----------------------|
A|---2~~--22~~--5/7-5/7-5/7-5/7-----|
E|---0~~--00~~--0~~-0~~-0~~-0~~-----|
pm--------x-------------------------|
01:37 - Chorus 2 (Pushed to our knees so let us pray..):
e|-------------------------------------------------------------|
B|-------------------------------------------------------------|
G|--55555--------77777-999999-55555--------7777775/7-----------|
D|--55555-555555-77777-999999-55555-555555-7777775/7-----------|
A|--33333-555555-55555-777777-33333-555555-5555553/5-----------|
E|--33333-333333-55555-777777-33333-333333-5555553/5-----------|
pm----xxx---xxxx---xxx---xxxx---xxx---xxxx---xx----------------|
e|-------------------------------------------------------------|
B|-------------------------------------------------------------|
G|--55555--------77777-999999-55555----------------------------|
D|--55555-555555-77777-999999-55555-555555-7~~~7---------------|
A|--33333-555555-55555-777777-33333-555555-7~~~7-pause---------|
E|--33333-333333-55555-777777-33333-333333-5~~~5---------------|
pm----xxx---xxxx---xxx---xxxx---xxx---xxxx---------------------|
01:55 - Bridge (Soft Part: Play Clean, Let notes ring softly):
e|----------------------------------------------------------------|
B|----------------------------------------------------------------|
G|-------------------------------------------3~-------------4~----|
D|----0--------2~----0--------5~----0--------------0--------------|
A|---3-3-0----2~----3-3-0----2~----3-3-0----2~----3-3-0----2~-----|
E|--0---3-3-0~-----0---3-3-0~-----0---3-3-0~-----0---3-3-0~-------|
e|----------------------------------------------------------------|
B|----------------------------------------------------------------|
G|-------------------------------------------3~-------------------|
D|----0--------2~----0--------5~----0--------------0--------------|
A|---3-3-0----2~----3-3-0----2~----3-3-0----2~----3-3-0----2------|
E|--0---3-3-0~-----0---3-3-0~-----0---3-3-0~-----0---3-3-0~-------|
02:38 - Pre-Chorus 3 (And in the distance, there's a gathering..):
e|-----------------------------------|
B|-----------------------------------|
G|-----------------------------------|
D|---2~~-----------------------------|
A|---2~~-pause---5/7-5/7-5/7-5/7-----|
E|---0~~---------0~~-0~~-0~~-0~~-----|
02:50 - Chorus 3 (Pushed to our knees so let us pray..):
e|-------------------------------------------------------------|
B|-------------------------------------------------------------|
G|--55555--------77777-999999-55555--------7777775/7-----------|
D|--55555-555555-77777-999999-55555-555555-7777775/7-----------|
A|--33333-555555-55555-777777-33333-555555-5555553/5-----------|
E|--33333-333333-55555-777777-33333-333333-5555553/5-----------|
pm----xxx---xxxx---xxx---xxxx---xxx---xxxx---xx----------------|
e|-------------------------------------------------------------|
B|-------------------------------------------------------------|
G|--55555--------77777-999999-55555----------------------------|
D|--55555-555555-77777-999999-55555-555555-7~~~----------------|
A|--33333-555555-55555-777777-33333-555555-7~~~-two pickslides-|
E|--33333-333333-55555-777777-33333-333333-5~~~----------------|
pm----xxx---xxxx---xxx---xxxx---xxx---xxxx---------------------|
03:06 - Outro (Our will be done..):
e|---------------------------------------------------------|
B|---------------------------------------------------------|
G|-------------------------------------------5---999999----|
D|--2-22252-2222--2-22252-2222--2-22252-2222-5/9-999999----|
A|--2-22252-2222--2-22252-2222--2-22252-2222-3---777777----|
E|--0-00030-0000--0-00030-0000--0-00030-0000-3---777777----|
pm----xxx---xxxx----xxx---xxxx----xxx---xxxx---------------|
e|---------------------------------------------------------|
B|---------------------------------------------------------|
G|-------------------------------------------7~~-----------|
D|--2-22252-2222--2-22252-2222--2-22252-2222-7~~-223332-2--|
A|--2-22252-2222--2-22252-2222--2-22252-2222-5~~-223332-2--|
E|--0-00030-0000--0-00030-0000--0-00030-0000-5~~-000000-0--|
pm----xxx---xxxx----xxx---xxxx----xxx---xxxx-----xx--------|
03:26 - End
8)NO POETIC DEVICE - AFI
-------------------------------------------------------------------------------
= Artificial Harmonic /= Slide Down (----)=Palm Mute #= Pick Slide
= Slide Up
Intro
|----------------------------------------->
|----------------------------------------->
|----------------------------------------->
|------------------9---10-9--99--9-10-11-->
|------------------9---10-9--99--9-10-11-->
|77-777-777-777-7--7---8--7/77--7-8--9/-->
Verse 1
|----------------------->
|----------------------->
|---------77-7---------->
|2-2-55-5-77-777-7------> X4 *At the end of the second time
|2-2-55-5-55-577-7------> Slide Down(/) and play two more
|0-0-33-3-----55-5(/*)--> Times.
Verse 2 Cont...
|-----------> |----------->
|-----------> |----------->
|(--)-------> |-(-)--(-)-->
|222245-5--> X3 |4444-3333--> X1
|222245-5--> |4444-3333-->
|000023-3--> |2222-1111-->
Play Verse 2(No Cont...) and No Palm Muting[ (---) ]. Then,
Cont... Part 2
|---------------------------------->
|---------------------------------->
|--(-)---(-)----------------------->
|4-5-7-4-5-7-99-10-9--99--9-10-11--> X1
|4-5-7-4-5-7-99-10-9--99--9-10-11-->
|2-3-5-2-3-5-77-8--7/77--7-8--9/-->
Play Verse 1 again.
Play Verse 2 with No Palm Muting.
Play Cont... again with No Palm Muting.
Play Verse 2 again with no Palm Muting.
Play Cont... Part 2. When you slide down, Hit an open "G" at the end and
Hold.
Special ########## ########
|--12---------------12-----> |-------------------------------->
|-----12---12-12-------12--> |-------------------------------->
|--------------------------> |-------------------------------->
|--------------------------> X1 |--------------------------------> X1
|--------------------------> |-------------------------------->
|--------------------------> |----------00--00--00--00-------->
Play Verse 1 again. End with open "G" while Guitar 2 in the background
plays:
Ending Riff
|--------------------------->
|--------------------------->
|9999-7777------------------>
|9999-7777-8888--10-9-10-9--> X6
|7777-5555-8888--10-9-10-9-->
|----------6666--8-/7-8-/7-->
9)THE LAST KISS - AFI
-------------------------------------------------------------------------------
INTRO:(repeat as necessary) final time go here
e|--5--5--5--5--5--5--5--5--5--5--5--5--5--5--5--5--|------------------------|
B|--6--6--6--5--5--5--6--6--8--8--8--6--6--6--8--8--|------------------------|
G|--7--7--7--7--7--7--7--7--7--7--7--7--7--7--7--7--|--10------10------7--10-|
D|--0--0--0--0--0--0--0--0--0--0--0--0--0--0--0--0--|--10--10--10--10--7--10-|
A|--------------------------------------------------|---8--10---8--10--5---8-|
E|--------------------------------------------------|-------8-------8--------|
Verse:
G:-7----------3-5-:
D:-7-8-/-10-3-3-5-:
A:-5-8-/-10-3-1-3-:
E:---6-/-8--1-----:
2nd repetition of verse instead of going from F# to A# and C i believe
(end of above tab) just go straight from F# to C. This might be a
shitty instruction. Right before it goes to the chorus it will do
this:
G:-10-9-:
D:-10-7-:
A:-8--7-:
Chorus:
G:-7-5-3---5-:
D:-7-5-3-3-5-:
A:-5-3-1-3-3-:
E:-------1---:
Im certain of something missing from the chorus...Its really bothering
me. But thats pretty close.
This is what i got for the digitized bit:
G:-7-5-----:
D:-7-5-7-8-:
A:-5-3-7-8-:
E:-----5-6-:
Please dont ask me, just what i think...
G:-7-5-----10-9-7-5---10-:
D:-7-5-7-8-10-9-7-5-3-10-:
A:-5-3-7-8-8--7-5-3-3-8--:
E:-----5-6----------1----:
-------------------------------------------------------------------------------
10)WEATHERED TOME - AFI
-------------------------------------------------------------------------------
I didn't do the exact strums, but this is the chord structure... you don't
have to play the full bars, just play the top 4 strings.
BASS INTRO
e|---------------------------------------------------------------------------|
B|---------------------------------------------------------------------------|
G|---------------------------------------------------------------------------|
D|---2-----------------------------------------------------------------------|
A|---2-----------------------------------------------------------------------|
E|---0---....----------------------------------------------------------------|
palm muted and strummed about a million times, take out palm mutes after a few
seconds
VERSE
e|--7-------5-7-----10--8-7---5-9---10-12-5--8-------------------------------|
B|--9-------7-9-----12-10-9---7-9---12-14-7-10-------------------------------|
G|--9-------7-9-----12-10-9---7-9---12-14-7-10-------------------------------|
D|--9-------7-9-----12-10-9---7-9---12-14-7-10-------------------------------|
A|--7-------5-9-----10--8-7---5-7---10-12-5--8-------------------------------|
E|--7-------5-7-----10--8-7---5-7---10-12-5--8-------------------------------|
PRECHORUS
e|---5--7--5--7--5--7--5--7---------------------------------------------------|
B|---7--9--7--9--7--9--5--7---------------------------------------------------|
G|---7--9--7--9--7--9--6--8---------------------------------------------------|
D|---7--9--7--9--7--9--7--9---------------------------------------------------|
A|---5--7--5--7--5--7--7--9---------------------------------------------------|
E|---5--7--5--7--5--7--5--7---------------------------------------------------|
CHROUS
e|---7--5--5--3--3-----------------------------------------------------------|
B|---9--7--5--5--3-----------------------------------------------------------|
G|---9--7--6--5--4-----------------------------------------------------------|
D|---9--7--7--5--5-----------------------------------------------------------|
A|---7--5--7--3--5-----------------------------------------------------------|
E|---7--5--5--3--3-----------------------------------------------------------|
back to beginning...
Breakdown:
e|---7--5--5--3--------7--5--5--3--3--5----0---------------------------------|
B|---9--7--5--5--6--8--9--7--5--5--3--5----0---------------------------------|
G|---9--7--6--5--5--7--9--7--6--5--4--6----0---------------------------------|
D|---9--7--7--5--3--5--9--7--7--5--5--7----2---------------------------------|
A|---7--5--7--3--------7--5--7--3--5--7----2---------------------------------|
E|---7--5--5--3--------7--5--5--3--3--5----0---let ring out------------------|
INTRo
11)AT A GLANCE - AFI
-------------------------------------------------------------------------------
/ = slide
pm = palm mute
x =pick scratch
Intro:
e|----------------------------------------------------------------------|
B|----------------------------------------------------------------------|
G|----------------------------------------------------------------------|
D|-7-7-7-8-8-8-7-7-7-8-8-8-7-7-8-8-10-10-10-10-10-10-10-----------------|
A|-0-0-0-0-0-0-0-0-0-0-0-0-0-0-0-0--0--0--0--0--0--0--0-----------------|
E|----------------------------------------------------------------------|
x x x x x x x x x x
e|----------------------------------------------------------------------|
B|----------------------------------------------------------------------|
G|----------------------------------------------------------------------|
D|-7-7-7-8-8-8-7-7-7-8-8-8-7-7-8-8-7-7-7-8-8-8-7-7-7-8-8-8--------------|
A|-0-0-0-0-0-0-0-0-0-0-0-0-0-0-0-0-0-0-0-0-0-0-0-0-0-0-0-0--------------|
E|----------------------------------------------------------*pickslide--|
x x x x x x x x x x
e|---------------------------------------------------------------------------|
B|---------------------------------------------------------------------------|
G|-5-7-8-7-5-7-8/9-8/9--------5-7-8-7-5-7-8/9-8/9----------------------------|
D|-7-7-7-7-7-7-7-7-7-7--------7-7-7-7-7-7-7-7-7-7----------------------------|
A|---------------------------------------------------------------------------|
E|---------------------------------------------------------------------------|
verse:
e|---------------------------------------------------------------------------|
B|---------------------------------------------------------------------------|
G|----------5/7-----5/7-----5/7----------------------------------------------|
D|----------5/7--3--5/7-3-5-5/7-3----5-10-12---------------------------------|
A|----------3/5--3--3/5-3-5-3/5-3----5-10-12---------------------------------|
E|-xxxxxxxx------1------1-3-----1----3--8-10---------------------------------|
chorus:
e|---------------------------------------------------------------------------|
B|---------------------------------------------------------------------------|
G|-----8---------8----------------------------8------------------------------|
D|--5--8-8-10--5-8-3-8---/-7--------------5---8-7----------------------------|
A|--5--6-8-10--5-6-3-8---/-7-----x2-then--5---6-7----------------------------|
E|--3----6--8--3---1-6---/-5--------------3-----5----------------------------|
bridge:
pm------------------------------
e|---------------------------------------------------------------------------|
B|---------------------------------------------------------------------------|
G|---------------------------------------------------------------------------|
D|--0-0-7-7-8-8-7-7---------------------0-0-7-7-8-8-7-7-----------------9----|
A|--0-0---------------5-5-7-7/8-8-7-7---0-0----------------5-5-7-7/8-8-------|
E|---------------------------------------------------------------------------|
"what becomes of me"
e|---------------------------------------------------------------------------|
B|---------------------------------------------------------------------------|
G|---------------------------------------------------------------------------|
D|-10--7---------------------------------------------------------------------|
A|-10--7----x as many as needed----------------------------------------------|
E|--8--5---------------------------------------------------------------------|
outro: after the second chorus. "wooohooow"
e|---------------------------------------------------------------------------|
B|---------------------------------------------------------------------------|
G|---------------------------------------------------------------------------|
D|-5--8-7--12----------------------------------------------------------------|
A|-5--8-7--12----------------------------------------------------------------|
E|-3--6-5--10----------------------------------------------------------------|
solo:figure out the rhythm on ur own...
e|---------------------------------------------------------------------------|
B|---------------------------------------------------------------------------|
G|-12-15-14-17-19-20-19--17-15/-14---17-15/-14-- 17-15/-14-10--14-12---------|
D|----------------------------/----------------------------------------------|
A|-10-13-12-15-17-18-17--15-13/-12---15-13/-12---15-13/-12--8--12-10---------|
E|---------------------------------------------------------------------------|
e|---------------------------------------------------------------------------|
B|---------------------------------------------------------------------------|
G|- 12/1412-10-16/1715--14---13/1413--12----------------------------------|
D|-------------------------------------------5-------------------------------|
A|--10/1210-8--14/1513--12---11/1211--10--5-------------------------------|
E|-------------------------------------------3-------------------------------|
===============================================================================
12) GOD CALLED IN SICK TODAY - AFI
-------------------------------------------------------------------------------
Part 1 (don't use palm-muting the first 2 times)
e|----------------------------------------------------------------------->
B|----------------------------------------------------------------------->
G|-----3-----3-----------2-----2-----------2-----2-----------3-----3----->
D|-5-5---5-5---5-5---3-3---3-3---3-3---0-0---0-0---0-0---1-1---1-1---1-0->
A|----------------------------------------------------------------------->
E|----------------------------------------------------------------------->
pm......................................................................
>-----------------------------------------------------------------------|
>---------6-------------------------------------------------------------|
>-----3-----3-----------2-----2-----------2h3p2-------------3-----3-----|
>-5-5---5-----5-5---3-3---3-3---3-3---0-3-------3-3-0---1-1---1-1---1-0-|
>-----------------------------------------------------------------------|
>-----------------------------------------------------------------------|
pm....... pm............. pm..............
__________________________________
Part 2: |1.
e|----------------------------------------------------------------------->
B|----------------------------------------------------------------------->
G|-7-7-7-7-7-7-7-7---5-5-5-5-5-5-5-5---2-2-2-2-2-2-2-2---3-3-3-3-3-3-3-3->
D|-5-5-5-5-5-5-5-5---3-3-3-3-3-3-3-3---0-0-0-0-0-0-0-0---1-1-1-1-1-1-1-1->
A|----------------------------------------------------------------------->
E|----------------------------------------------------------------------->
pm.....................................................................
__________________________________
|2... Distortion Kicks in
e|-----------------------------------|
B|-----------------------------------|
G|-7-7-7-7-7-7-7-7---8-8-8-8-8-8-8-8-|
D|-7-7-7-7-7-7-7-7---8-8-8-8-8-8-8-8-|
A|-5-5-5-5-5-5-5-5---6-6-6-6-6-6-6-6-|
E|-----------------------------------|
____________
Part 3: |1.
e|----------------------------------------------------------->
B|----------------------------------------------------------->
G|-3--3-3--3-3-3-3/5--5-5-5-5-5------------------------------>
D|-3--3-3--3-3-3-3/5--5-5-5-5-5--5--5-5--5-5-5-5/3-3-3-3-3-3->
A|-1--1-1--1-1-1-1/3--3-3-3-3-3--5--5-5--5-5-5-5/3-3-3-3-3-3->
E|-------------------------------3--3-3--3-3-3-3/1-1-1-1-1-1->
____________________
|2.
e|---------------------|
B|---------------------|
G|-8-8-8-8-8-8-8-8-----|
D|-8-8-8-8-8-8-8-8---5~|
A|-6-6-6-6-6-6-6-6---5~|
E|-------------------3~|
e|--------------------------------------------------------------------------|
B|--------------------------------------------------------------------------|
G|-12-12-12-12--12--12--10101010-10-10--7-7-7-7--7--7-/--8-8-8-8--8--8-8/-|
D|-12-12-12-12--12--12--10101010-10-10--7-7-7-7--7--7-/--8-8-8-8--8--8-8/-|
A|-10-10-10-10--10--10--8-8-8-8--8--8---5-5-5-5--5--5-/--6-6-6-6--6--6-6/-|
E|--------------------------------------------------------------------------|
pm......... pm..... pm..... pm.....
Part 5:
e|-5-5-5-5-5-5-5-5--3-3-3-3-3-3-3-3--5-5-5-5-5-5-5-5--6-6-6-6-6-6-6-6-|
B|-6-6-6-6-6-6-6-6--4-4-4-4-4-4-4-4--5-5-5-5-5-5-5-5--6-6-6-6-6-6-6-6-|
G|-7-7-7-7-7-7-7-7--5-5-5-5-5-5-5-5--6-6-6-6-6-6-6-6--7-7-7-7-7-7-7-7-|
D|-7-7-7-7-7-7-7-7--5-5-5-5-5-5-5-5--7-7-7-7-7-7-7-7--8-8-8-8-8-8-8-8-|
A|-5-5-5-5-5-5-5-5--3-3-3-3-3-3-3-3--7-7-7-7-7-7-7-7--8-8-8-8-8-8-8-8-|
E|-----------------------------------5-5-5-5-5-5-5-5--6-6-6-6-6-6-6-6-|
Part 6:
e|-----------------------------------------------------------------------|
B|-----------------------------------------------------------------------|
G|------------3~--------------------7-7-7-7-7-7-7-7-7--------------------|
D|-5~--3-3-3--3~--3-3-3--5~--5-5-5--8-8-8-8-8-8-8-8-8--------------------|
A|-5~--3-3-3--1~--3-3-3--5~--5-5-5--8-8-8-8-8-8-8-8-8--------------------|
E|-3~--1-1-1------1-1-1--3~--3-3-3--6-6-6-6-6-6-6-6-6--------------------|
pm.............
Part 7:
e|--------------|
B|--------------|
G|-3~-----------|
D|-3~-3-3-3--5~-|
A|-1~-3-3-3--5~-|
E|----1-1-1--3~-|
Song Order:
Part 1 2x, clean, no pm
Part 2 ending 1
Part 2 ending 2
Part 3 ending 1
Part 3 ending 2
Part 1 with pm
Part 4 2x
Part 3 ending 1
Part 3 ending 2 (without last chord)
Part 3 ending 1
Part 3 ending 2 (without last chord)
Part 5 4x
Part 6
Part 3 ending 1
Part 3 ending 2 (without last chord)
Part 3 ending 1
Part 3 ending 2 (without last chord)
Part 7
After the first 2x in part 5, a second guitar kicks in with something I'm not
real sure of.
14) MIDNIGHT SUN - AFI
-------------------------------------------------------------------------------
*= Harmonic
Intro
e|------12*-----------------------|
B|--12*-----7*-5*-------7*----12*-|
G|-------------------7*----5*-----|
D|--------------------------------|
A|--------------------------------|
E|--------------------------------|
Verse
e|----------------------------------|
B|----------------------------------|
G|---9---9-7-9----------------12-12-|
D|---9---9-7-9-8-10---10-9-11-12-12-|
A|---7---7-5-7-8-10---10-9-11-10-10-|
E|-------------6--8----8-7--9-------|
p.m.---------------------------|
Chorus
e|------------------------------------------------|
B|--9-9-9-9---------------------------------------|
G|--9-9-9-9--9--9--9--9-5-5-5-5-12-12-12-11-11-11-|
D|--9-9-9-9-10-10-10-10-7-7-7-7--X--X--X--X--X--X-|
A|--7-7-7-7-10-10-10-10-7-7-7-7-10-10-10--9--9--9-|
E|-----------8--8--8--8-5-5-5-5-------------------|
Whoa part
e|-------------------------------------|
B|-------------------------------------|
G|--9-9-7-9-9-9-7-9-9-9-9-12-12-12-12--|
D|--9-9-7-9-9-9-7-9-9-9-9-12-12-12-12--|
A|--7-7-5-7-7-7-5-7-7-7-7-10-10-10-10--|
E|-------------------------------------|
e|-----------------------------------------------|
B|-----------------------------------------------|
G|-----------------------------------12-12-12-12-|
D|-10-10-10-8-10-10-10-9-11-11-11-11-12-12-12-12-|
A|-10-10-10-8-10-10-10-9-11-11-11-11-10-10-10-10-|
E|--8--8--8-6--8--8--8-7--9--9--9--9-------------|
End of whoa part
e|---------------------------|
B|---------------------------| X4
G|--12-12-12-12-11-11-11-11--|
D|--12-12-12-12-11-11-11-11--|
A|--10-10-10-10-10-10-10-10--|
E|---------------------------|
Breakdown (clean part)
e|-------------------------------------------------|
B|-------------------------------------------------|
G|-------------------------------------------------|
D|-14-14-14-14-14-14-14-14-15-15-15-15-15-15-15-15-|
A|-12-12-12-12-12-12-12-12-14-14-14-14-14-14-14-14-|
E|-------------------------------------------------|
e|----------------------------------|
B|----------------------------------|
G|----------------------------------|
D|-16-16-16-15-15-18-18-18-17-17-17-|
A|-13-13-13-13-13-15-15-15-15-15-15-|
E|----------------------------------|
That's it. The notes in the verse are played multiple times.
I didn't feel like putting it all down. I'm not to sure about
the breakdown, but that's as close as I can get it.
by jovannir



Get this song at amazon.com      Ebay     Ringtones Ringtones  


Learn to play: Songwriting, Piano, Harmonica, Guitar
More AFI lyrics available at Muzikum

Related Afi Tabs

6 To 8 (perfect) tabs
But Home Is Nowhere tabs
The Prayer Postion tabs
Advances In Modern Technology tabs
Porphyria Cutanea Tarda tabs
3 1 2 tabs
Lost Souls tabs
Key Lime Pie tabs
Summer Shudder Power tabs
Self Pity tabs
Black Sails In The Sunset tabs
The Last Kiss (solo) tabs
Synesthesia tabs
6 To 8 Bass tabs
A Story At Three Intro tabs
The missing frame tabs
Third Season tabs
Story At Three tabs
Love Like Winter Power tabs
Dont Make Me Ill Bass tabs


Guitar Tabs









All tabs are property and copyright of their owners. All tabs provided for educational purposes only. Privacy Policy, DMCA