Afi

Battled Bass Tabs



More from Afi

Afi Tabs
Afi Chords
Afi Bass
Afi Lyrics



Artist: A.F.I.
Song: Battled
Album:The Art Of Drowning

Intro/Verse:
-----------------------------------------------------
-----------------------------------------------------
---------------------------------------------333-----
-5555-3-5555-5555-1-3333-5555-3-5555-3-5555------333-

Chorus:
----------------------------------------------------------------------------
----------------------------------------------------------------------------
-33-3---------------33-3---------------33-3---------------33-3------6-5-3---
------33-355-5-55-5------33-355-6-55-5------33-355-5-55-5------33-3-------5-

Bridge:
-----------------------------------------57575-79797-11-------------
-------------------------------777-5-777----------------979-777-555-
--------------------------------------------------------------------
-5555-3-5555-5555-1-3333-5555---------------------------------------

Outro:
----------------
----------------
-6-5-3-6-5-3-0~-
----------------


TaDa

Enjoi

Taken from The BassMasta -- http://www.tabs-database.com



Get this song at amazon.com      Ebay     Ringtones Ringtones  


Learn to play: Songwriting, Piano, Harmonica, Guitar
Also available at Muzikum: AFI - Battled lyrics

Related Afi Bass Tabs

Kill Caustic bass
Miss Murder (correct! G D A D Tuning) bass
Cereal wars bass
Miss Murder 100% Correct bass
No Poetic Device bass
Of Seasons bass
Crop Tub bass
6 To 8 bass
The Hanging Garden bass
Leaving Song bass
The Prayer Position bass
Brownie Bottom Sundae bass
The missing frame bass
God Called In Sick Today bass
Consult My Lover bass
Rizzo In A Box bass
Totalimmortal bass
Ph Low bass
Rolling Balls bass
Girls Not Grey bass


Guitar Tabs









All tabs are property and copyright of their owners. All tabs provided for educational purposes only. Privacy Policy, DMCA