Afi

At A Glance Tabs



More from Afi

Afi Tabs
Afi Chords
Afi Bass
Afi Lyrics

BAND: 	AFI
SONG: At A Glance
TABBER: DREW
EMAIL: funeral_in_carpathia13@yahoo.com
TUNNING: STANDARD (yea i know Jade plays a half-step down)
COMMENT: alrite, i know my version is very similar to the other version,
coincidence (believe me or not, either way i dont care) but
i felt the other version was off a bit in some parts so i
decided to share this version
key: * PM
INTRO
------------------------------------------------------------------------
------------------------------------------------------------------------
------------------------------------------------------------------------
--7-0-0-8-0-0-7-0-0-8-0-0-7-0-8-0-10--play last 10th fret note 16x------
--0-0-0-0-0-0-0-0-0-0-0-0-0-0-0-0--0------------------------------------
------------------------------------------------------------------------
* * * * * * * * * *
------------------------------------------------------------------------
------------------------------------------------------------------------
------------------------------------------------------------------------
--7-0-0-8-0-0-7-0-0-8-0-0-7-0-8-0-7-8-7-8-78---pickscrape---------------
--0-0-0-0-0-0-0-0-0-0-0-0-0-0-0-0-0-0-0-0-00----------------------------
------------------------------------------------------------------------
* * * * * * * * * *
VERSE - not including exact number of strums since its all about how
you hear it, heres a guide though
------------------------------------------------------------------------
------------------------------------------------------------------------
--10/7-9-10--10/7----10--10/7-9-10--------------------------------------
--10/7-9-10--10/7-10-10--10/7-9-10--10--12------------------------------
---8/5-7--8---8/5-10--8---8/5-7--8--10--12------------------------------
-------------------8-----------------8--10------------------------------
CHORUS - again not including # of strums
--3--6--6---8--3--6---8----8--8-0-6-6-0-3-------------------------------
--3--8--6---8--3--8--10----8--8-0-6-6-0-3-------------------------------
--3--8--6---9--3--8--10----8--8-0-6-6-0-4-------------------------------
--5--8--8--10--5--8--10---10-10-0-8-8-0-5---pickscrape------------------
--5--6--8--10--5--6---8---10-10-0-8-8-0-5-------------------------------
--3--6--6---8--3--6---8----8--8-0-6-6-0-3-------------------------------
* *
VERSE - not including exact number of strums since its all about how
you hear it, heres a guide though
------------------------------------------------------------------------
------------------------------------------------------------------------
--10/7-9-10--10/7----10--10/7-9-10--------------------------------------
--10/7-9-10--10/7-10-10--10/7-9-10--10--12------------------------------
---8/5-7--8---8/5-10--8---8/5-7--8--10--12------------------------------
-------------------8-----------------8--10------------------------------
CHORUS - again not including # of strums
--3--6--6---8--3--6---8----8--8-0-6-6-0-3----6----5---------------------
--3--8--6---8--3--8--10----8--8-0-6-6-0-3----6----5---------------------
--3--8--6---9--3--8--10----8--8-0-6-6-0-4----8----6---------------------
--5--8--8--10--5--8--10---10-10-0-8-8-0-5----8----7---------------------
--5--6--8--10--5--6---8---10-10-0-8-8-0-5----6----7---------------------
--3--6--6---8--3--6---8----8--8-0-6-6-0-3----6----5---------------------
* *
INTRELUDE - slight distortion
------------------------------------------------------------------------
------------------------------------------------------------------------
------------------------------------------------------------------------
------7-7-8-8-7-7------------------------7-7-8-8-7-7-------------10-10--
--5-5-------------6-6-6-8-8-8-6-6--5-5---------------6-6-6-8-8-8--------
------------------------------------------------------------------------
* * * * * * * * * * * * * * * * * * * * * * * * * * * * * * * * * *
-------------------------------------3--2-------------------------------
-------------------------------------3--2-------------------------------
-------------------------------------5--2-------------------------------
------7-7-8-8-7-7--------------------5--2-------------------------------
--5-5-------------6-6-6-8-8-8-6-6-6--3--0-------------------------------
-------------------------------------3--0-------------------------------
* * * * * * * * * * * * * * * * *
full distortion
------------------------------------------------------------------------
------------------------------------------------------------------------
------7-7-8-8-7-7------------------------7-7-8-8-7-7-------------10-10--
--5-5-------------6-6-6-8-8-8-6-6----5-5-------------6-6-6-8-8-8--------
------------------------------------------------------------------------
------------------------------------------------------------------------
* * * * * * * * * * * * * * * * * * * * * * * * * * * * * * * * * *
-------------------------------------3--2----3--2----3--2---------------
-------------------------------------3--2----3--2----3--2---------------
------7-7-8-8-7-7--------------------5--2----5--2----5--2---------------
--5-5-------------6-6-6-8-8-8-6-6-6--5--2----5--2----5--2---pickscrape--
-------------------------------------3--0----3--0----3--0---------------
-------------------------------------3--0----3--0----3--0---------------
* * * * * * * * * * * * * * * * *
CHORUS - again not including # of strums
--3--6--6---8--3--6---8----8--8-0-6-6-0---------------------------------
--3--8--6---8--3--8--10----8--8-0-6-6-0---------------------------------
--3--8--6---9--3--8--10----8--8-0-6-6-0---------------------------------
--5--8--8--10--5--8--10---10-10-0-8-8-0---------------------------------
--5--6--8--10--5--6---8---10-10-0-8-8-0---------------------------------
--3--6--6---8--3--6---8----8--8-0-6-6-0---------------------------------
* *
--3--6--6---8--3--6---8----8--8-0-6-6-0---------------------------------
--3--8--6---8--3--8--10----8--8-0-6-6-0---------------------------------
--3--8--6---9--3--8--10----8--8-0-6-6-0---------------------------------
--5--8--8--10--5--8--10---10-10-0-8-8-0---------------------------------
--5--6--8--10--5--6---8---10-10-0-8-8-0---------------------------------
--3--6--6---8--3--6---8----8--8-0-6-6-0---------------------------------
* *
BREAKDOWN - WOAH - each note 8x
--3--------1--------1--------5------------------------------------------
--3--------3--------1--------5------------------------------------------
--3--------3--------2--------7------------------------------------------
--5--------3--------3--------7------------------------------------------
--5--------1--------3--------5------------------------------------------
--3--------1--------1--------5------------------------------------------
LAST RIFF - i was tought a different variation, but i like this, this is
the CORRECTED version from the other tab on this site
each note 8x unless notes are joined, in which they are played as seen
------------------------------------------------------------------------
------------------------------------------------------------------------
--12-15-14-17-19-20-17-151515-141414-121212-151515-141414-121212--------
---x--x--x--x--x--x--x--x-x-x--x-x-x--x-x-x--x-x-x--x-x-x--x-x-x--------
--10-13-12-15-17-18-15-131313-121212-101010-131313-121212-101010--------
------------------------------------------------------------------------
---------------------------------------------------0-3-------------------
---------------------------------------------------0-3-------------------
--151515-141414-121212--10-14-12-12/10-10/14-14/7--0-3-------------------
---x-x-x--x-x-x--x-x-x---x--x--x--x--x--x--x--x-x--0-5-------------------
--131313-121212-101010---8-12-10-10/-8--8/12-12/5--0-5-------------------
---------------------------------------------------0-3-------------------
alrite, there it is, enjoy, that was a bitch to tab, so there ya go
merry christmas. comments, complaint, rate, all appreciated
peace



Get this song at amazon.com      Ebay     Ringtones Ringtones  


Learn to play: Songwriting, Piano, Harmonica, Guitar
Also available at Muzikum: AFI - At A Glance lyrics

Related Afi Tabs

Don't Make Me Ill tabs
I Will Die Screaming Bass tabs
Hearts Frozen Soil Thawed tabs
Whatever I Do tabs
Love Like Winter Power tabs
A Story At Three tabs
Open Your Eyes tabs
Summer Shudder Power tabs
Shatty Fatmas tabs
Advances In Modern Technology tabs
Synesthesia tabs
Ever And A Day tabs
Asprin Free tabs
A Single Second tabs
Six To Eight tabs
Todays Lesson tabs
The Prayer Postion tabs
But Home Is Nowhere tabs
Despair Factor tabs
The lost souls tabs


Guitar Tabs









All tabs are property and copyright of their owners. All tabs provided for educational purposes only. Privacy Policy, DMCA