Afi

Advances In Modern Technology Bass Tabs



More from Afi

Afi Tabs
Afi Chords
Afi Bass
Afi Lyrics



-------------------------------------------------------------------------------
ADVANCES IN MODERN TECHNOLOGY - AFI
-------------------------------------------------------------------------------



/=Slide
>=Strum

Intro
G|---------------------------------------------------------------------------|
D|------------------5-5------------------------------------------------------|
A|-----------------------5---------------------------------------------------|
E|-0-(Let Ring)--------------------------------------------------------------|

Verse 2x
G|---------------------------------------------------------------------------|
D|---------------------------------------------------------------------------|
A|-7>--5>--7>--3>---2>--0>--2>--3333-----------------------------------------|
E|---------------------------------------------------------------------------|

Chorus 2x
G|---------------------------------------------------------------------------|
D|---------------------------------------------------------------------------|
A|-7>--5>--3>----7>--5>--3>--------------------------------------------------|
E|---------------------------------------------------------------------------|

Bridge
G|---------------------------------------------------------------------------|
D|-----------------------------------------4-5-7-5-4-0-(2x)--Last Time--55---|
A|--------------77------7>/10>-999-3--3>--5--------------------------------5-|
E|-0-(Let Ring)--------------------------------------------------------------|

Outro
G|---------------------------------------------------------------------------|
D|---------------------------------------------------------------------------|
A|-7777-5-77/2---------------------------------------------------------------|
E|---------------------------------------------------------------------------|

Song Structure
Intro 1x
Verse 2x
Chorus 2x
Verse 2x
Chorus 2x
Bridge 1x
Chorus 2x
Outro 1x

Taken from The BassMasta -- http://www.tabs-database.com



Get this song at amazon.com      Ebay     Ringtones Ringtones  


Learn to play: Songwriting, Piano, Harmonica, Guitar
Also available at Muzikum: AFI - Advances In Modern Technology lyrics

Related Afi Bass Tabs

Charles Atlas bass
Death Of Seasons bass
Let It Be Broke bass
Consult My Lover bass
A Single Second bass
Keeping Out Of Direct Sunlight bass
Ph Low bass
Rizzo In The Box(correct) bass
Morning Star bass
Morningstar bass
Coin Return bass
Miss Murder bass
Take The Test bass
Now The World bass
Modern Epic bass
The Mother In Me bass
Miss Murder (correct! G D A D Tuning) bass
This Time Imperfect bass
But Home Is Nowhere bass
Ny Quil bass


Guitar Tabs









All tabs are property and copyright of their owners. All tabs provided for educational purposes only. Privacy Policy, DMCA