Afi

A Winters Tale Bass Tabs



More from Afi

Afi Tabs
Afi Chords
Afi Bass
Afi Lyrics



Artist: AFI
Song: A Winter's Tale
Album: Days of the Phoenix EP
Bassist: Hunter
Tuning: Standard
Tabbed by: Spidey255

Intro
G|-----------------------------|--------------------------------------|-----|
D|-----------------------------|--------------------------------------|-----|
A|-555-333-8888----------------|-555-333-8888--------7-10-8-77-8-10-8-|-10>-|
E|--------------6666-888888888-|--------------6666-8------------------|-----|

Verse
G|------------------------------------|--------------------------------------------|
D|------------------------------------|----------------------77-88-10-10-10-10-----|
A|-55555-----55-66-88888-----88-10-10-|-55555-----55-66-8888-------------------8---|
E|-------666-------------888----------|-------666--------------------------------8-|

G|-------------------|----------------------------------------|
D|-------------------|----------------------7-----------------|
A|-555------888------|-5-8-5-----55-66-77-8---10-8---8-7------|
E|-----6666-----8888-|-------8-66------------------8-----8-6~-|

Prechorus
G|----------------------------------------------------|
D|----------------------------------------------------|
A|-5555-7777-8888-10-10-10-10-12-12-12-12-12-12-12-12-|
E|----------------------------------------------------|

Chorus
G|-----------------------------|--------------------------|
D|------------------6/77777777-|--------------------------|
A|-888----------555------------|-888----------5---5555----|
E|-----88888888----------------|-----88888-66---6------88-|

G|--------------------------------------|
D|-------------44-55-77-88888888--55555-|
A|-888-------55-------------------------|
E|-----88888----------------------------|

-intro
-verse
-chorus

Bridge Only do that slide in the beginning once
G|--------------------------------------------------------------|-------5-777-|
D|----------------5/75-333333333333-3/53----------------------|-5-777-------|
A|---555555555555--------------------------333333333333-3/53-5-|-------------|
E|-/------------------------------------------------------------|-------------|

End of Bridge
G|---------------------5-7777777-|
D|----------5-77777777-----------|
A|-55555555----------------------|
E|-------------------------------|

-chorus

Ending Chorus
G|--------------------------------------------5-777-------|
D|----77-88-10-10--------------------44-55-77-------5-777-|
A|-88----------------77-88-10-10--55----------------------|
E|----------------88--------------------------------------|

G|------------------------------------------|
D|----77-88-10-10---------------------------|
A|-88----------------77-88-10-10-----555----|
E|----------------88-------------6666----88-|

G|-----------------------------------------------------------|
D|----77-88-10-10-------------------44-55-77-888888888-55555-|
A|-88----------------77-88-10-10-55--------------------------|
E|----------------88-----------------------------------------|

End on A|-5~-|

Taken from The BassMasta -- http://www.tabs-database.com



Get this song at amazon.com      Ebay     Ringtones Ringtones  


Learn to play: Songwriting, Piano, Harmonica, Guitar
Also available at Muzikum: AFI - A Winter's Tale lyrics

Related Afi Bass Tabs

Of Greatings & Goodbyes bass
A Single Second bass
6 To 8 bass
3 12 bass
Girls Not Gray bass
Take The Test bass
Open Your Eyes bass
Weathered Tomb bass
The Last Kiss bass
Morningstar bass
Girls Not Grey bass
This Time Imparfect bass
Kill Caustic bass
Miss Murder(complete) bass
Ny Quil bass
Morning Star bass
Holloween bass
Values Here bass
Keeping Out Of Direct Sunlight bass
What Ever I Do bass


Guitar Tabs









All tabs are property and copyright of their owners. All tabs provided for educational purposes only. Privacy Policy, DMCA