Afi

A Winter's Tale Tabs



More from Afi

Afi Tabs
Afi Chords
Afi Bass
Afi Lyrics



Song: A Winter's Tale
Band: AFI
Album: Days of the Phoenix EP
Tuning: Standard (E A D G B e)
Key: D minor
Tabbed by: Mark Mazurek
Mxtabs ID: noonecouldseeme


definitely one of afi's shining moments...


Intro:

e|-5----8---8----6---8------------------------|
B|-6----8--10----6---8------------------------|
G|-7----9--10----7---9------------------------|
D|-7---10--10----8--10------------------------|
A|-5---10---8----8--10------------------------|
E|-5----8---8----6---8------------------------|

e|-5---8---8----6-----------------------------|
B|-6---8--10----6-----------------------------|
G|-7---9--10----7-----------------------------|
D|-7--10--10----8-----------------------------|
A|-5--10---8----8---7--8-10---7--8-10---------|
E|-5---8---8----6---8--8--8---8--8--8---------|

e|--------------------------------------------|
B|--------10--11------------------------------|
G|-10-9---10--10---9---10-12---9---10-12/14---|
D|--0-0------------10--10-10---10--10--x--x---|
A|------------------------------------10/12---|
E|--------------------------------------------|

e|-----6-8---5--------------------------------|
B|-----6-6---6--------8-----11----------------|
G|-10------------7----9------9----------------|
D|--x------------0---10-----10----------------|
A|--8-----------------------------------------|
E|--------------------------------------------|

Verse 1:
A chilling silence...
e|-5---6---8----8-----------------------------|
B|-6---6--10----8-----------------------------|
G|-7---7--10----9-----------------------------|
D|-7---8--10---10-----------------------------|
A|-5---8---8---10-----------------------------|
E|-5---6---8----8-----------------------------|

e|-5---6---8----8-----------------------------|
B|-6---6--10----8-----------------------------|
G|-7---7--10----9-----------------------------|
D|-7---8--10---10-----------------------------|
A|-5---8---8---10-----------------------------|
E|-5---6---8----8-----------------------------|

e|-5---6---8----8-----------------------------|
B|-6---6--10----8-----------------------------|
G|-7---7--10----9-----------------------------|
D|-7---8--10---10-----------------------------|
A|-5---8---8---10-----------------------------|
E|-5---6---8----8-----------------------------|

e|-5---6---8----8-----------------------------|
B|-6---6--10----8-----------------------------|
G|-7---7--10----9-----------------------------|
D|-7---8--10---10-----------------------------|
A|-5---8---8---10-----------------------------|
E|-5---6---8----8-----------------------------|

Pre-Chorus:

e|-6------------------------------------------|
B|-6------------------------------------------|
G|-7-----------------7-9----------------------|
D|-8-------------5---7-7----------------------|
A|-8---5---7--8--5---5-5----------------------|
E|-6---5---5--5--5----------------------------|

Chorus 1:
Forever walking through December...
e|--8---8---10------8---8---6---------8----8---5---6---5--|
B|-10---8---10-----10---8---6--------10----8---6---6---5--|
G|-10---9---10-----10---9---7---7-5--10----9---7---7---6--|
D|-10--10---12-----10--10---8---7-5--10---10---7---8---7--|
A|--8--10---12------8--10---8---5-3---8---10---5---8---7--|
E|--8---8---10------8---8---6---------8----8---5---6---5--|

Modified Intro Riff:

e|-5---8---8----6-----------------------------|
B|-6---8---10---6-----------------------------|
G|-7---9---10---7-----------------------------|
D|-7--10---10---8-----------------------------|
A|-5--10---8----8---7--8-10---7--8-10---------|
E|-5---8---8----6---8--8--8---8--8--8---------|

e|-5---8---8----6----8------------------------|
B|-6---8---10---6----8------------------------|
G|-7---9---10---7----9------------------------|
D|-7--10---10---8---10------------------------|
A|-5--10---8----8---10------------------------|
E|-5---8---8----6----8------------------------|

Verse 2:
Ice everylasting...
e|-5---6---8----8-----------------------------|
B|-6---6--10----8-----------------------------|
G|-7---7--10----9-----------------------------|
D|-7---8--10---10-----------------------------|
A|-5---8---8---10-----------------------------|
E|-5---6---8----8-----------------------------|

e|-5---6---8----8-----------------------------|
B|-6---6--10----8-----------------------------|
G|-7---7--10----9-----------------------------|
D|-7---8--10---10-----------------------------|
A|-5---8---8---10-----------------------------|
E|-5---6---8----8-----------------------------|

e|-5---6---8----8-----------------------------|
B|-6---6--10----8-----------------------------|
G|-7---7--10----9-----------------------------|
D|-7---8--10---10-----------------------------|
A|-5---8---8---10-----------------------------|
E|-5---6---8----8-----------------------------|

e|-5---6---8----8-----------------------------|
B|-6---6--10----8-----------------------------|
G|-7---7--10----9-----------------------------|
D|-7---8--10---10-----------------------------|
A|-5---8---8---10-----------------------------|
E|-5---6---8----8-----------------------------|


Pre-Chorus:

e|-6------------------------------------------|
B|-6------------------------------------------|
G|-7-----------------7-9----------------------|
D|-8-------------5---7-7----------------------|
A|-8---5---7--8--5---5-5----------------------|
E|-6---5---5--5--5----------------------------|

Chorus 1:
Forever walking through December...
e|--8---8---10------8---8---6---------8----8---5---6---5--|
B|-10---8---10-----10---8---6--------10----8---6---6---5--|
G|-10---9---10-----10---9---7---7-5--10----9---7---7---6--|
D|-10--10---12-----10--10---8---7-5--10---10---7---8---7--|
A|--8--10---12------8--10---8---5-3---8---10---5---8---7--|
E|--8---8---10------8---8---6---------8----8---5---6---5--|

Interlude:
If only for one night...
e|-10-----13------8------10-------------------|
B|-10-----13------6------10-------------------|
G|--7-----10------5-------7-------------------|
D|--------------------------------------------|
A|--------------------------------------------|
E|--------------------------------------------|

e|--------------------------------------------|
B|--------------------------------------------|
G|-7---10---5---7-----------------------------|
D|-7---10---5---7-----------------------------|
A|-5----8---3---5-----------------------------|
E|--------------------------------------------|

e|--------------------------------------------|
B|-----6-8-6------------------3-5-6-----------|
G|-7----------10---9-10-9--5---------7--------|
D|-7----------10-----------5---------7--------|
A|-5-----------8-----------3---------5--------|
E|--------------------------------------------|

Chorus 3:
Forever walking through Decemer...
e|--8---8---10------8---8---6---------8----8---5---6---5--|
B|-10---8---10-----10---8---6--------10----8---6---6---5--|
G|-10---9---10-----10---9---7---7-5--10----9---7---7---6--|
D|-10--10---12-----10--10---8---7-5--10---10---7---8---7--|
A|--8--10---12------8--10---8---5-3---8---10---5---8---7--|
E|--8---8---10------8---8---6---------8----8---5---6---5--|

e|--8---8---10------8---8---6---------8----8---5---6---5--|
B|-10---8---10-----10---8---6--------10----8---6---6---5--|
G|-10---9---10-----10---9---7---7-5--10----9---7---7---6--|
D|-10--10---12-----10--10---8---7-5--10---10---7---8---7--|
A|--8--10---12------8--10---8---5-3---8---10---5---8---7--|
E|--8---8---10------8---8---6---------8----8---5---6---5--|

Last Chord:

e|-5-------------------------------------------|
B|-6-------------------------------------------|
G|-7-------------------------------------------|
D|-7-------------------------------------------|
A|-5-------------------------------------------|
E|-5-------------------------------------------|


Get this song at amazon.com      Ebay     Ringtones Ringtones  


Learn to play: Songwriting, Piano, Harmonica, Guitar
Also available at Muzikum: AFI - A Winter's Tale lyrics

Related Afi Tabs

Silver And Cold tabs
Checkered Demon tabs
Single Second tabs
Rabbits are roadkill on route 37 tabs
The missing frame tabs
Cult Status tabs
Miss Murder tabs
The Prayer Postion tabs
Days Of The Phoenix tabs
Days Of The Phoenix Exact tabs
Salt For Your Wounds tabs
Initiation tabs
Sing The Sorrow Album tabs
Cruise Control tabs
Soap Box Derby tabs
File 13 tabs
Todays Lesson tabs
6 To 8 tabs
Rabbits Are Roadkill On Route 37 Intro tabs
Six To Eight tabs


Guitar Tabs









All tabs are property and copyright of their owners. All tabs provided for educational purposes only. Privacy Policy, DMCA