Afi

A Winter Tale Tabs



More from Afi

Afi Tabs
Afi Chords
Afi Bass
Afi Lyrics



A Winter Tale


Here is the tab 4 this song.
Standard tuning.


Intro

|------0--1--3--0---=
|------1--3--3--1---=
|---7--2--2--0--2---=
|---7--2--0--2--2---=
|---5--0--0--2--0---=
|------0--0--0--0---=

|------0--1--3------------------------------------=
|------1--3--3------------------------------------=
|---7--2--2--0------------------------------------=
|---7--2--0--2--2-2-3-3-5-5-2-2-2-2-3-3-5-5-2-2---=
|---5--0--0--2--0-0-3-3-3-3-0-0-0-0-3-3-3-3-0-0---=
|------0--0--0------------------------------------=


Verse 1

D A F C
|---2--0--1--0---=
|---3--1--1--1---=
|---3--2--2--0---=
|---0--2--3--2---=
|---x--0--x--3---=
|---x--0--x--0---=

D A F C
|---2--0--1--0---=
|---3--1--1--1---=
|---3--2--2--0---=
|---0--2--3--2---=
|---x--0--x--3---=
|---x--0--x--0---=

D A F C
|---2--0--1--0---=
|---3--1--1--1---=
|---3--2--2--0---=
|---0--2--3--2---=
|---x--0--x--3---=
|---x--0--x--0---=

D A F C
|---2--0--1--0---=
|---3--1--1--1---=
|---3--2--2--0---=
|---0--2--3--2---=
|---x--0--x--3---=
|---x--0--x--0---=


Pre-Chorus

|----------------------=
|---------4--6--8------=
|---7--9--5--7--9--9---=
|---7--9--3--5--7--9---=
|---5--7-----------7---=
|----------------------=


Chorus

|-------------------------------------------=
|-------------------------------------------=
|------5--7-----5--3--7--5-----5--7--3--2---=
|---3--5--7--3--5--3--7--5--3--5--7--3--2---=
|---3--3--5--3--3--1--5--3--3--3--5--1--0---=
|---1--------1--------------1---------------=


Bridge

|---------------------------------------------------=
|---------------------------------------------------=
|---7--5--10----------------------------------------=
|---7--5--10--8---2-2-3-3-5-5-2-2-2-2-3-3-5-5-2-2---=
|---5--3---8--8---0-0-3-3-3-3-0-0-0-0-3-3-3-3-0-0---=
|-------------6-------------------------------------=

|--------------------=
|--------------------=
|---7--5--10-----5---=
|---7--5--10--8--5---=
|---5--3---8--8--3---=
|-------------6------=


Verse 2

D A F C
|---2--0--1--0---=
|---3--1--1--1---=
|---3--2--2--0---=
|---0--2--3--2---=
|---x--0--x--3---=
|---x--0--x--0---=

D A F C
|---2--0--1--0---=
|---3--1--1--1---=
|---3--2--2--0---=
|---0--2--3--2---=
|---x--0--x--3---=
|---x--0--x--0---=

D A F C
|---2--0--1--0---=
|---3--1--1--1---=
|---3--2--2--0---=
|---0--2--3--2---=
|---x--0--x--3---=
|---x--0--x--0---=

D A F C
|---2--0--1--0---=
|---3--1--1--1---=
|---3--2--2--0---=
|---0--2--3--2---=
|---x--0--x--3---=
|---x--0--x--0---=


Pre-Chorus

|----------------------=
|---------4--6--8------=
|---7--9--5--7--9--9---=
|---7--9--3--5--7--9---=
|---5--7-----------7---=
|----------------------=


Chorus

|-------------------------------------------=
|-------------------------------------------=
|------5--7-----5--3--7--5-----5--7--3--2---=
|---3--5--7--3--5--3--7--5--3--5--7--3--2---=
|---3--3--5--3--3--1--5--3--3--3--5--1--0---=
|---1--------1--------------1---------------=


Bridge

|---------------------------------------------------=
|---------------------------------------------------=
|---7--5--10----------------------------------------=
|---7--5--10--8---2-2-3-3-5-5-2-2-2-2-3-3-5-5-2-2---=
|---5--3---8--8---0-0-3-3-3-3-0-0-0-0-3-3-3-3-0-0---=
|-------------6-------------------------------------=

|--------------------=
|--------------------=
|---7--5--10-----5---=
|---7--5--10--8--5---=
|---5--3---8--8--3---=
|-------------6------=


Chorus

|-------------------------------------------=
|-------------------------------------------=
|------5--7-----5--3--7--5-----5--7--3--2---=
|---3--5--7--3--5--3--7--5--3--5--7--3--2---=
|---3--3--5--3--3--1--5--3--3--3--5--1--0---=
|---1--------1--------------1---------------=


Chorus

|-------------------------------------------=
|-------------------------------------------=
|------5--7-----5--3--7--5-----5--7--3--2---=
|---3--5--7--3--5--3--7--5--3--5--7--3--2---=
|---3--3--5--3--3--1--5--3--3--3--5--1--0---=
|---1--------1--------------1---------------=



That's it. ENJOY!!!!!!!!!!


Get this song at amazon.com      Ebay     Ringtones Ringtones  


Learn to play: Songwriting, Piano, Harmonica, Guitar
More AFI lyrics available at Muzikum

Related Afi Tabs

Cult Status tabs
Wester tabs
A Single Second tabs
I Wanna Mohawk tabs
Ever And A Day tabs
Dont Make Me Ill Bass tabs
Miss Murder Live tabs
Hearts Frozen Soil tabs
The Interview tabs
This Time Imperfect tabs
Prayer Position Intro tabs
Six To Eight tabs
Todays Lesson tabs
Silver & Cold tabs
Rizzo In A Box tabs
Kiss And Control tabs
Malleus Maleficarum tabs
Dancing Through Sunday tabs
This Celluliod Dream tabs
Carcinogen Crush Bass tabs


Guitar Tabs









All tabs are property and copyright of their owners. All tabs provided for educational purposes only. Privacy Policy, DMCA