Afi

A Single Second Tabs



More from Afi

Afi Tabs
Afi Chords
Afi Bass
Afi Lyrics



A Single Second


Here is the tab 4 this song.
Standard tuning.



Intro

|------------------------=
|------------------------=
|-------------77777777---=
|---55555555--77777777---=
|---55555555--55555555---=
|---33333333-------------=


Verse

|---------------------------------------------=
|---------------------------------------------=
|-------------5555--77------------7777--8-8---=
|---5555--77--5555--77--5555--77--7777--8-8---=
|---5555--77--3333--55--5555--77--5555--6-6---=
|---3333--55------------3333--57--------------=

|---------------------------------------------=
|---------------------------------------------=
|-------------5555--77------------7777--8-8---=
|---5555--77--5555--77--5555--77--7777--8-8---=
|---5555--77--3333--55--5555--77--5555--6-6---=
|---3333--55------------3333--57--------------=


Pre-Chorus

|------------------------------------------------=
|------------------------------------------------=
|---121212121212--888888----------101010101010---=
|---121212121212--888888--888888--101010101010---=
|---101010101010--666666--888888---8-8-8-8-8-8---=
|-------------------------666666-----------------=


Chorus

|-----------------------------------=
|-----------------------------------=
|-------------------555555--7-8-7---=
|---555555--888888--555555--7-8-7---=
|---555555--888888--333333--5-6-5---=
|---333333--666666------------------=

|-----------------------------------=
|-----------------------------------=
|-------------------333333--5-6-5---=
|---555555--333333--333333--5-6-5---=
|---555555--333333--111111--3-4-3---=
|---333333--111111------------------=




That's it. ENJOY!!!!!!!!!!!!


Get this song at amazon.com      Ebay     Ringtones Ringtones  


Learn to play: Songwriting, Piano, Harmonica, Guitar
Also available at Muzikum: AFI - A Single Second lyrics

Related Afi Tabs

Porphyria tabs
Rolling Balls tabs
Dont Make Me Ill Bass tabs
Modern Epic tabs
The Leaving Song Part Ii tabs
Fallen Like The Sky tabs
Asprin Free tabs
Rabbits are roadkill on route 37 tabs
Crop Tub tabs
Dream Of Walking tabs
Endlessly She Said Bass tabs
Story At Three tabs
At A Glance Bass tabs
Prayer Position tabs
Kiss And Control tabs
The Great Disappointment Bass tabs
6 To 8 tabs
Girls Not Grey tabs
The missing frame tabs
File tabs


Guitar Tabs









All tabs are property and copyright of their owners. All tabs provided for educational purposes only. Privacy Policy, DMCA