Afi

6 To 8 Tabs



More from Afi

Afi Tabs
Afi Chords
Afi Bass
Afi Lyrics



6 To 8


Here is the tab 4 this song.
Standard tuning.


Intro

|--------------------------------------=
|---------------0------------0---------=
|---4-0-2-2---2---2---2----2---2---2---=
|-----------2-------2---2--------2-----=
|------------------------3-------------=
|--------------------------------------=


Verse 1

|------------2---=
|------------3---=
|---4-1-3-3--2---=
|----------------=
|----------------=
|----------------=


Chorus

|---0--1--1--0--------------------------=
|---1--3--1--0-------------------8--5---=
|---2--2--2--0---7/9--7/9-----4--7--6---=
|---2--0--3--2---7/9--7/9--7--4--5--4---=
|---0--x--x--2---5/7--5/7--7--2---------=
|---0--x--x--0-------------5------------=

|---0--1--1--0--------------------------=
|---1--3--1--0-------------------8--5---=
|---2--2--2--0---7/9--7/9-----4--7--6---=
|---2--0--3--2---7/9--7/9--7--4--5--4---=
|---0--x--x--2---5/7--5/7--7--2---------=
|---0--x--x--0-------------5------------=


Verse 2

|-----------------------------=
|-----------------------------=
|---4-0-2-2-4-4-0-0-0-2-2-2---=
|-----------------------------=
|-----------------------------=
|-----------------------------=


Bridge

|---------------------------------2---=
|-----------0-------------0-------3---=
|---2-2---2---2---5-2---2---2-----2---=
|-------2-------2-5---2-------2---0---=
|-----------------3---------------x---=
|---------------------------------x---=


Solo

|-----------------------------------------------7-------=
|---10b12r10-------8------------------------8-----8-----=
|------------12-14---12-7-7-7-7-7-7-7-7-9-9---9-----9---=
|-------------------------------------------------------=
|-------------------------------------------------------=
|-------------------------------------------------------=

That's the only part of solo that i noe, i'll post more in the future when i tab them. Just
enjoy this one 4 now.




That's it. ENJOY!!!!!!!!!!!!!!!!!!!!!


Get this song at amazon.com      Ebay     Ringtones Ringtones  


Learn to play: Songwriting, Piano, Harmonica, Guitar
Also available at Muzikum: AFI - 6 To 8 lyrics

Related Afi Tabs

A Single Second tabs
Leaving Song tabs
Smile tabs
Who Knew tabs
Porphyria tabs
The Killing Lights(intro And Verses) tabs
Your Name Here tabs
Head Like A Hole tabs
Three And A Half tabs
Cruise Control tabs
Interview tabs
Mini Trucks Suck tabs
Scarifice Theory Solo tabs
Despair Factor tabs
Reivers Music tabs
Catch A Hot One tabs
Aspirin Free tabs
Killing Lights Power tabs
This Celluliod Dream tabs
Death Of Seasons tabs


Guitar Tabs









All tabs are property and copyright of their owners. All tabs provided for educational purposes only. Privacy Policy, DMCA