Afi

6 To 8 (perfect) Tabs



More from Afi

Afi Tabs
Afi Chords
Afi Bass
Afi Lyrics



Song: 6 To 8
Band: AFI
Album The Art Of DRowning
Tabber: Josh
Tunning: Standerd


okay this isn't completly tabbed by me i used jade's version ill indicate
teh chords as i hear them played so enjoy sorry if it sux:(


Intro: clean
|-----------------------------------------|
|-----------------------------------------|
|-----------------------------------------| (the |---7--| can b played four times if
|--9--9---5--5---7--7---7----7---7---7----| |-0----| played fast but you pick:)
|--0--0-0-0--0-0-0--0-0-0--0---0---0------|
|-----------------------------------------|

|-----------------------------------------|
|-----------------------------------------|
|-----------------------------------------|
|--9--9---5--5---7--7---7----7---7---7----|
|--0--0-0-0--0-0-0--0-0-0--0---0---0------|
|-----------------------------------------|

verse1: clean
|-----------------------------------------|
|-----------------------------------------|
|-----------------------------------------|
|--9--9---5--5---7--7---7----7---7---7----|
|--0--0-0-0--0-0-0--0-0-0--0---0---0------|
|-----------------------------------------|

|-----------------------------------------|
|-----------------------------------------|
|-----------------------------------------|
|--9--9---5--5---7--7---7----7---7---7----|
|--0--0-0-0--0-0-0--0-0-0--0---0---0------|
|-----------------------------------------|

|-----------------------------------------|
|-----------------------------------------|
|-----------------------------------------|
|--9--9---5--5---7--7---7----7---7---7----|
|--0--0-0-0--0-0-0--0-0-0--0---0---0------|
|-----------------------------------------|

|-----------------------------------------|
|-----------------------------------------|
|-----------------------------------------|
|--9--9---5--5---7--7---7----7---7---7----|
|--0--0-0-0--0-0-0--0-0-0--0---0---0------|
|-----------------------------------------|

interlude: clean
|-------------------------------------------------------------------|
|-------------------------------------------------------------------|
|-2----2--4p2-------2----2--4p2-----2--2-2-2-2--2-2-2-2--2-2-2-2----|
|---2---------2-------2---------2---0--0-0-0-0--0-0-0-0--0-0-0-0----|
|----------------3--------------------------------------------------|
|-------------------------------------------------------------------|

|-------------------------------------------------------------------|
|-------------------------------------------------------------------|
|-2----2--4p2-------2----2--4p2-----2--2-2-2-2--2-2-2-2--2-2-2-2----|
|---2---------2-------2---------2---0--0-0-0-0--0-0-0-0--0-0-0-0----|
|----------------3--------------------------------------------------|
|-------------------------------------------------------------------|

|-----------------------------------------|
|-----------------------------------------|
|-----------------------------------------|
|--9--9---5--5---7--7---7----7---7---7----|
|--0--0-0-0--0-0-0--0-0-0--0---0---0------|
|-----------------------------------------|

|-----------------------------------------|
|-----------------------------------------|
|-----------------------------------------|
|--9--9---5--5---7--7---7----7---7---7----|
|--0--0-0-0--0-0-0--0-0-0--0---0---0------|
|-----------------------------------------|

verse2: clean
|------------------------------------------------------------------------------|
|-10-10-10-10-10-10-10-10--5-5-5-5-5-5-5-5--8-8-8-8-8-8-8-8--7-7-7-7-7-7-7-7---|
|-9--9--9--9--9--9--9--9---5-5-5-5-5-5-5-5--7-7-7-7-7-7-7-7--7-7-7-7-7-7-7-7---|
|-9--9--9--9--9--9--9--9---5-5-5-5-5-5-5-5--7-7-7-7-7-7-7-7--7-7-7-7-7-7-7-7---|
|------------------------------------------------------------------------------|
|------------------------------------------------------------------------------|

|------------------------------------------------------------------------------|
|-10-10-10-10-10-10-10-10--5-5-5-5-5-5-5-5--8-8-8-8-8-8-8-8--7-7-7-7-7-7-7-7---|
|-9--9--9--9--9--9--9--9---5-5-5-5-5-5-5-5--7-7-7-7-7-7-7-7--7-7-7-7-7-7-7-7---|
|-9--9--9--9--9--9--9--9---5-5-5-5-5-5-5-5--7-7-7-7-7-7-7-7--7-7-7-7-7-7-7-7---|
|------------------------------------------------------------------------------|
|------------------------------------------------------------------------------|

|------------------------------------------------------------------------------|
|-10-10-10-10-10-10-10-10--5-5-5-5-5-5-5-5--8-8-8-8-8-8-8-8--7-7-7-7-7-7-7-7---|
|-9--9--9--9--9--9--9--9---5-5-5-5-5-5-5-5--7-7-7-7-7-7-7-7--7-7-7-7-7-7-7-7---|
|-9--9--9--9--9--9--9--9---5-5-5-5-5-5-5-5--7-7-7-7-7-7-7-7--7-7-7-7-7-7-7-7---|
|------------------------------------------------------------------------------|
|------------------------------------------------------------------------------|

gtr:1
|------------------------------------------------------------------------------|
|-10-10-10-10-10-10-10-10--5-5-5-5-5-5-5-5--8-8-8-8-8-8-8-8--7-7-7-7-7-7-7-7---|
|-9--9--9--9--9--9--9--9---5-5-5-5-5-5-5-5--7-7-7-7-7-7-7-7--7-7-7-7-7-7-7-7---|
|-9--9--9--9--9--9--9--9---5-5-5-5-5-5-5-5--7-7-7-7-7-7-7-7--7-7-7-7-7-7-7-7---|
|------------------------------------------------------------------------------|
|------------------------------------------------------------------------------|
gtr:2 distorted (volume increses)
|---------------------------------------------------5-5-5-5--5-5-5-5-5-5-5-5---|
|---------------------------------------------------7-7-7-7--7-7-7-7-7-7-7-7---|
|---------------------------------------------------7-7-7-7--7-7-7-7-7-7-7-7---|
|---------------------------------------------------7-7-7-7--7-7-7-7-7-7-7-7---|
|---------------------------------------------------5-5-5-5--5-5-5-5-5-5-5-5---|
|---------------------------------------------------5-5-5-5--5-5-5-5-5-5-5-5---|

chorus:distorted (strumming may be off but those ARE the chords)
|-3-3-3-3-3--*--3-3-3---------0-0-0-0-------------5-5-5-5-5-5----------------|
|-5-5-5-5-5--S--3-3-3---------0-0-0-0-------------5-5-5-5-5-5--0-0-0-0-0-0---|
|-5-5-5-5-5--T--4-4-4---------0-0-0-0---7/9--7/9--6-6-6-6-6-6--4-4-4-4-4-4---|
|-5-5-5-5-5--O--5-5-5--4-4-4--2-2-2-2-------------7-7-7-7-7-7--5-5-5-5-5-5---|
|-3-3-3-3-3--P--5-5-5--5-5-5--2-2-2-2---5/7--5/7--7-7-7-7-7-7--2-2-2-2-2-2---|
|-3-3-3-3-3--*--3-3-3--2-2-2--0-0-0-0---0-0--0-0--5-5-5-5-5-5----------------|

|-3-3-3-3-3--*--3-3-3---------0-0-0-0--------------------------------|
|-5-5-5-5-5--S--3-3-3---------0-0-0-0--------------------------------|
|-5-5-5-5-5--T--4-4-4---------0-0-0-0---7/9--7/9--12-12---11--11-----|
|-5-5-5-5-5--O--5-5-5--4-4-4--2-2-2-2--------------------------------|
|-3-3-3-3-3--P--5-5-5--5-5-5--2-2-2-2---5/7--5/7--10-10---9---9------|
|-3-3-3-3-3--*--3-3-3--2-2-2--0-0-0-0---0-0--0-0--0--0----0---0------|

|-3-3-3-3-3--*--3-3-3---------0-0-0-0-------------5-5-5-5-5-5----------------|
|-5-5-5-5-5--S--3-3-3---------0-0-0-0-------------5-5-5-5-5-5--0-0-0-0-0-0---|
|-5-5-5-5-5--T--4-4-4---------0-0-0-0---7/9--7/9--6-6-6-6-6-6--4-4-4-4-4-4---|
|-5-5-5-5-5--O--5-5-5--4-4-4--2-2-2-2-------------7-7-7-7-7-7--5-5-5-5-5-5---|
|-3-3-3-3-3--P--5-5-5--5-5-5--2-2-2-2---5/7--5/7--7-7-7-7-7-7--2-2-2-2-2-2---|
|-3-3-3-3-3--*--3-3-3--2-2-2--0-0-0-0---0-0--0-0--5-5-5-5-5-5----------------|

|-3-3-3-3-3--*--3-3-3---------0-0-0-0-------------5-5-5-5-5-5----------------|
|-5-5-5-5-5--S--3-3-3---------0-0-0-0-------------5-5-5-5-5-5--0-0-0-0-0-0---|
|-5-5-5-5-5--T--4-4-4---------0-0-0-0---7/9--7/9--6-6-6-6-6-6--4-4-4-4-4-4---|
|-5-5-5-5-5--O--5-5-5--4-4-4--2-2-2-2-------------7-7-7-7-7-7--5-5-5-5-5-5---|
|-3-3-3-3-3--P--5-5-5--5-5-5--2-2-2-2---5/7--5/7--7-7-7-7-7-7--2-2-2-2-2-2---|
|-3-3-3-3-3--*--3-3-3--2-2-2--0-0-0-0---0-0--0-0--5-5-5-5-5-5----------------|

verse3: distorted
|------------------------------------------------------------------------------|
|-10-10-10-10-10-10-10-10--5-5-5-5-5-5-5-5--8-8-8-8-8-8-8-8--7-7-7-7-7-7-7-7---|
|-9--9--9--9--9--9--9--9---5-5-5-5-5-5-5-5--7-7-7-7-7-7-7-7--7-7-7-7-7-7-7-7---|
|-9--9--9--9--9--9--9--9---5-5-5-5-5-5-5-5--7-7-7-7-7-7-7-7--7-7-7-7-7-7-7-7---|
|------------------------------------------------------------------------------|
|------------------------------------------------------------------------------|

|------------------------------------------------------------------------------|
|-10-10-10-10-10-10-10-10--5-5-5-5-5-5-5-5--8-8-8-8-8-8-8-8--7-7-7-7-7-7-7-7---|
|-9--9--9--9--9--9--9--9---5-5-5-5-5-5-5-5--7-7-7-7-7-7-7-7--7-7-7-7-7-7-7-7---|
|-9--9--9--9--9--9--9--9---5-5-5-5-5-5-5-5--7-7-7-7-7-7-7-7--7-7-7-7-7-7-7-7---|
|------------------------------------------------------------------------------|
|------------------------------------------------------------------------------|

|------------------------------------------------------------------------------|
|-10-10-10-10-10-10-10-10--5-5-5-5-5-5-5-5--8-8-8-8-8-8-8-8--7-7-7-7-7-7-7-7---|
|-9--9--9--9--9--9--9--9---5-5-5-5-5-5-5-5--7-7-7-7-7-7-7-7--7-7-7-7-7-7-7-7---|
|-9--9--9--9--9--9--9--9---5-5-5-5-5-5-5-5--7-7-7-7-7-7-7-7--7-7-7-7-7-7-7-7---|
|------------------------------------------------------------------------------|
|------------------------------------------------------------------------------|

|------------------------------------------------------------5-5-5-5-5-5-5-5---|
|-10-10-10-10-10-10-10-10--5-5-5-5-5-5-5-5--8-8-8-8-8-8-8-8--7-7-7-7-7-7-7-7---|
|-9--9--9--9--9--9--9--9---5-5-5-5-5-5-5-5--7-7-7-7-7-7-7-7--7-7-7-7-7-7-7-7---|
|-9--9--9--9--9--9--9--9---5-5-5-5-5-5-5-5--7-7-7-7-7-7-7-7--7-7-7-7-7-7-7-7---|
|------------------------------------------------------------5-5-5-5-5-5-5-5---|
|------------------------------------------------------------5-5-5-5-5-5-5-5---|

chorus:distorted (strumming may be off but those ARE the chords)
|-3-3-3-3-3--*--3-3-3---------0-0-0-0-------------5-5-5-5-5-5----------------|
|-5-5-5-5-5--S--3-3-3---------0-0-0-0-------------5-5-5-5-5-5--0-0-0-0-0-0---|
|-5-5-5-5-5--T--4-4-4---------0-0-0-0---7/9--7/9--6-6-6-6-6-6--4-4-4-4-4-4---|
|-5-5-5-5-5--O--5-5-5--4-4-4--2-2-2-2-------------7-7-7-7-7-7--5-5-5-5-5-5---|
|-3-3-3-3-3--P--5-5-5--5-5-5--2-2-2-2---5/7--5/7--7-7-7-7-7-7--2-2-2-2-2-2---|
|-3-3-3-3-3--*--3-3-3--2-2-2--0-0-0-0---0-0--0-0--5-5-5-5-5-5----------------|

|-3-3-3-3-3--*--3-3-3---------0-0-0-0--------------------------------|
|-5-5-5-5-5--S--3-3-3---------0-0-0-0--------------------------------|
|-5-5-5-5-5--T--4-4-4---------0-0-0-0---7/9--7/9--12-12---11--11-----|
|-5-5-5-5-5--O--5-5-5--4-4-4--2-2-2-2--------------------------------|
|-3-3-3-3-3--P--5-5-5--5-5-5--2-2-2-2---5/7--5/7--10-10---9---9------|
|-3-3-3-3-3--*--3-3-3--2-2-2--0-0-0-0---0-0--0-0--0--0----0---0------|

|-3-3-3-3-3--*--3-3-3---------0-0-0-0-------------5-5-5-5-5-5----------------|
|-5-5-5-5-5--S--3-3-3---------0-0-0-0-------------5-5-5-5-5-5--0-0-0-0-0-0---|
|-5-5-5-5-5--T--4-4-4---------0-0-0-0---7/9--7/9--6-6-6-6-6-6--4-4-4-4-4-4---|
|-5-5-5-5-5--O--5-5-5--4-4-4--2-2-2-2-------------7-7-7-7-7-7--5-5-5-5-5-5---|
|-3-3-3-3-3--P--5-5-5--5-5-5--2-2-2-2---5/7--5/7--7-7-7-7-7-7--2-2-2-2-2-2---|
|-3-3-3-3-3--*--3-3-3--2-2-2--0-0-0-0---0-0--0-0--5-5-5-5-5-5----------------|

|-3-3-3-3-3--*--3-3-3---------0-0-0-0-------------5-5-5-5-5-5----------------|
|-5-5-5-5-5--S--3-3-3---------0-0-0-0-------------5-5-5-5-5-5--0-0-0-0-0-0---|
|-5-5-5-5-5--T--4-4-4---------0-0-0-0---7/9--7/9--6-6-6-6-6-6--4-4-4-4-4-4---|
|-5-5-5-5-5--O--5-5-5--4-4-4--2-2-2-2-------------7-7-7-7-7-7--5-5-5-5-5-5---|
|-3-3-3-3-3--P--5-5-5--5-5-5--2-2-2-2---5/7--5/7--7-7-7-7-7-7--2-2-2-2-2-2---|
|-3-3-3-3-3--*--3-3-3--2-2-2--0-0-0-0---0-0--0-0--5-5-5-5-5-5----------------|

break: distorted
|--------------------------------------------------------5--5-5-5-5--5-5-5-5--5-5-5-5-----|
|--------------------------------------------------------7--7-7-7-7--7-7-7-7--7-7-7-7-----|
|---2---2-----2--4p2----------2---2-----2--4p2-----------7--7-7-7-7--7-7-7-7--7-7-7-7-----|
|---2------2-------------2----2-------2------------2-----7--7-7-7-7--7-7-7-7--7-7-7-7-----|
|---0-------------------------3--------------------------5--5-5-5-5--5-5-5-5--5-5-5-5-----|
|--------------------------------------------------------5--5-5-5-5--5-5-5-5--5-5-5-5-----|

|--------------------------------------------------------5--5-5-5-5--5-5-5-5--5-5-5-5-----|
|--------------------------------------------------------7--7-7-7-7--7-7-7-7--7-7-7-7-----|
|---2---2-----2--4p2----------2---2-----2--4p2-----------7--7-7-7-7--7-7-7-7--7-7-7-7-----|
|---2------2-------------2----2-------2------------2-----7--7-7-7-7--7-7-7-7--7-7-7-7-----|
|---0-------------------------3--------------------------5--5-5-5-5--5-5-5-5--5-5-5-5-----|
|--------------------------------------------------------5--5-5-5-5--5-5-5-5--5-5-5-5-----|

|--------------------------------------------------------5--5-5-5-5--5-5-5-5--5-5-5-5-----|
|--------------------------------------------------------7--7-7-7-7--7-7-7-7--7-7-7-7-----|
|---2---2-----2--4p2----------2---2-----2--4p2-----------7--7-7-7-7--7-7-7-7--7-7-7-7-----|
|---2------2-------------2----2-------2------------2-----7--7-7-7-7--7-7-7-7--7-7-7-7-----|
|---0-------------------------3--------------------------5--5-5-5-5--5-5-5-5--5-5-5-5-----|
|--------------------------------------------------------5--5-5-5-5--5-5-5-5--5-5-5-5-----|

|--------------------------------------------------------5--5-5-5-5---------------------|
|--------------------------------------------------------7--7-7-7-7---------------------|
|---2---2-----2--4p2----------2---2-----2--4p2-----------7--7-7-7-7---------------------|
|---2------2-------------2----2-------2------------2-----7--7-7-7-7--4-4-4-4--4-4-4-4---|
|---0-------------------------3--------------------------5--5-5-5-5--5-5-5-5--5-5-5-5---|
|--------------------------------------------------------5--5-5-5-5--7-7-7-7--7-7-7-7---|

chorus: ditorted

|-3-3-3-3-3--*--3-3-3---------0-0-0-0-------------5-5-5-5-5-5----------------|
|-5-5-5-5-5--S--3-3-3---------0-0-0-0-------------5-5-5-5-5-5--0-0-0-0-0-0---|
|-5-5-5-5-5--T--4-4-4---------0-0-0-0---7/9--7/9--6-6-6-6-6-6--4-4-4-4-4-4---|
|-5-5-5-5-5--O--5-5-5--4-4-4--2-2-2-2-------------7-7-7-7-7-7--5-5-5-5-5-5---|
|-3-3-3-3-3--P--5-5-5--5-5-5--2-2-2-2---5/7--5/7--7-7-7-7-7-7--2-2-2-2-2-2---|
|-3-3-3-3-3--*--3-3-3--2-2-2--0-0-0-0---0-0--0-0--5-5-5-5-5-5----------------|

|-3-3-3-3-3--*--3-3-3---------0-0-0-0--------------------------------|
|-5-5-5-5-5--S--3-3-3---------0-0-0-0--------------------------------|
|-5-5-5-5-5--T--4-4-4---------0-0-0-0---7/9--7/9--12-12---11--11-----|
|-5-5-5-5-5--O--5-5-5--4-4-4--2-2-2-2--------------------------------|
|-3-3-3-3-3--P--5-5-5--5-5-5--2-2-2-2---5/7--5/7--10-10---9---9------|
|-3-3-3-3-3--*--3-3-3--2-2-2--0-0-0-0---0-0--0-0--0--0----0---0------|

|-3-3-3-3-3--*--3-3-3---------0-0-0-0-------------5-5-5-5-5-5----------------|
|-5-5-5-5-5--S--3-3-3---------0-0-0-0-------------5-5-5-5-5-5--0-0-0-0-0-0---|
|-5-5-5-5-5--T--4-4-4---------0-0-0-0---7/9--7/9--6-6-6-6-6-6--4-4-4-4-4-4---|
|-5-5-5-5-5--O--5-5-5--4-4-4--2-2-2-2-------------7-7-7-7-7-7--5-5-5-5-5-5---|
|-3-3-3-3-3--P--5-5-5--5-5-5--2-2-2-2---5/7--5/7--7-7-7-7-7-7--2-2-2-2-2-2---|
|-3-3-3-3-3--*--3-3-3--2-2-2--0-0-0-0---0-0--0-0--5-5-5-5-5-5----------------|

|-3-3-3-3-3--*---------------------------------------|
|-5-5-5-5-5--S---------------------------------------|
|-5-5-5-5-5--T-------------------4-4-4-4-4-4-4-4-----|(now guitar 2 comes in with teh solo
|-5-5-5-5-5--O--5-5-5-5-5-5-5-5--5-5-5-5-5-5-5-5-----| witch starts at teh end of teh opened
|-3-3-3-3-3--P--5-5-5-5-5-5-5-5--5-5-5-5-5-5-5-5-----|part. also guitar 1 plays chorus
|-3-3-3-3-3--*--3-3-3-3-3-3-3-3--3-3-3-3-3-3-3-3-----|chords behind the solo.)
..palm.muted...

solo: distorted (strum some notes more then writen)
|---------------------------------------------------------------------------7-------|
|---12-----------------12-------12--12-12-12-12-12---0--0--0--0------8--------8-----|
|---14fb14--12--14------12--12--12--12-12-12-12--7---7--7--9--9--------9--------9---|
|-----------------------------------------------------------------------------------|
|-----------------------------------------------------------------------------------|
|-----------------------------------------------------------------------------------|

|-----------------------------------0---0---0----0----0---0---0---0----0---0----|
|----------------------0--0--0--0---10--10--10---12---12--12--12--12---17--17---|
|---9--12--14/16--12---9--9--9--9--9--------------------------------------------|
|-------------------------------------------------------------------------------|
|-------------------------------------------------------------------------------|
|-------------------------------------------------------------------------------|

|----0---0---0--15--15--15---14--14---15---17---14--14---15-------15-------------15--15---15--|
|---17--17--17--12--12--12---12--12---12---15---15--15---17------------17---17---17--17---17--|
|--------------------------------------------------------------16-----------16---16--16---16--|
|---------------------------------------------------------------------------------------------|
|---------------------------------------------------------------------------------------------|
|---------------------------------------------------------------------------------------------|

|---15--15--15~---14~---15~---|
|---12--12--12~---12~---12~---|
|-----------------------------|
|-----------------------------|
|-----------------------------|
|-----------------------------|


Get this song at amazon.com      Ebay     Ringtones Ringtones  


Learn to play: Songwriting, Piano, Harmonica, Guitar
More AFI lyrics available at Muzikum

Related Afi Tabs

A Winters Tale tabs
Advances In Modern Technology tabs
37 mm tabs
Salt For Your Wounds tabs
Reivers Music tabs
Consult My Lover tabs
Fall Children tabs
The Lost Souls (perfect) tabs
Shatty Fatmas tabs
Prelude 12/21 tabs
Open Your Eyes tabs
Death Of Seasons Intro tabs
Hearts Frozen Soil Sod Once More By The Spring Of Rage Despair And Hoplessness tabs
A Single Second tabs
Porphyria Cutanea Tarda tabs
Girls Not Grey tabs
Head Like A Hole tabs
Kill Caustic Bass tabs
Endlessly She Said tabs
Mini Trucks Suck tabs


Guitar Tabs









All tabs are property and copyright of their owners. All tabs provided for educational purposes only. Privacy Policy, DMCA