Afi

6 To 8 Bass Tabs



More from Afi

Afi Tabs
Afi Chords
Afi Bass
Afi Lyrics



Band: AFI

Song: 6 to 8



Tabbed By: Anthony Calderone



Intro:

----------------|----------------------|------------|

-5h7-----5h7----|----------------------|---5h7------|

-----0-------0--|---0--3--5---0--3--5--|-------0----|

----------------|----------------------|------------|



Verse:

------------------------------------------------------------4-3--------|

-------------2p0---------------------------2p0------------------4-2----|

-0-0---2-3-3-----3-----4-5-5---0-0---2-3-3-----3-----4-5-5-------------|

-------------------3-3---------------------------3-3-------------------|



-----------------------------------------------------------------------|

-------------2p0---------------------------2p0-------------------------|

-0-0---2-3-3-----3-----4-5-5---0-0---2-3-3-----3-----4-5-5-555555------|

-------------------3-3---------------------------3-3-------------------|



Chorus:

-----------------------------------------|

-----------------------------------------|

-333333-----------------5h7-5h7----------|x4

--------3-333333-2-0000---------00000000-|



Verse:

---------------------------------------------------------------4-2--------|

-------------2p0-------------------------------2p0-----------------4-2----|

-0-0---2-3-3-----3-----4-5-5-------0-0---2-3-3-----3-----4-5-5------------|

-------------------3-3-------2-3-3------------------3-3-------------------|



--------------------------------------------------------------------------|

-------------2p0-------------------------------2p0------------------------|

-0-0---2-3-3-----3-----4-5-5-------0-0---2-3-3-----3-----4-5-5-555555-----|

-------------------3-3-------2-3-3------------------3-3-------------------|



Chorus:

---------------------------------------------|

---------------------------------------------|

-333333-----------------5h7-5h7--------------|x4

--------3-333333-2-0000---------00000000-----|



Bridge:

-----------------------------------------|

-----------------------------------------|

-0-000000-3-333333-5-555555555555555-----|x4

-----------------------------------------|



Chorus:

-----------------------------------------------|

-----------------------------------------------|

-333333-----------------5h7-5h7--------------x2|

--------3-333333-2-0000---------00000000-------|



---------------------------------------------------|

---------------------------------------------------|

-333333-----------------5h7-5h7----------333333----|

--------3-333333-2-0000---------00000000-----------|



Outro:

-----------------------------------|-----------------------|-----------|

-----------------------------------|-----------------------|-----------|

------------0-3333333333-----------|----------5h7-5h7----x8|--3--------|

-0000000000--------------33333333--|-00000000--------------|-----3--0--|Added by tabs-database.com and our distinguished partners
Get this song at amazon.com      Ebay     Ringtones Ringtones  


Learn to play: Songwriting, Piano, Harmonica, Guitar
More AFI lyrics available at Muzikum

Related Afi Tabs

3 12 Bass tabs
Story At Three tabs
Fallen Like The Sky tabs
Silver & Cold tabs
Over Exposure tabs
Leaving Song Part 2 tabs
Three Seconds Notice tabs
Your Name Here tabs
Scarifice Theory Solo tabs
6 To 8 (perfect) tabs
The Leaving Song Part Ii tabs
Lost Souls tabs
The Interview tabs
He Who Laughs Last tabs
Love Is A Many Splendor Thing tabs
Bleed Black tabs
Triple Zero tabs
At A Glance tabs
The Leaving Song Pt. Ii tabs
Reivers Music tabs


Guitar Tabs









All tabs are property and copyright of their owners. All tabs provided for educational purposes only. Privacy Policy, DMCA