Afghan Whigs

Afghan Whigs - Uptown again guitar tab

uptown again

--------------------------------------------------------------------------------

song: dulli

tabs: zanzi, hamlett

intro/verse

e:------------------------------------------|

B:---0--1--0---0--1--0---0--1--0--1--1--0--1|

G:---2--2--2---2--2--2---2--2--2--2--2--2--2|

D:---2--2--2---2--2--2---2--2--2--2--2--2--2|

A:------------------------------------------|

E:--0---------------------------------------|

Verse chords (at least the bass plays these notes)

Am - G - F - G

Bridge (ooohhh...)

e-----3-------3-------3------3------------

B---1-------1-------1------1--------------

G-2-------0--------------0----------------

D-----------------3-----------------------

A-----------------------------------------

E-----------------------------------------

Chorus chords (each chords one measure):

G - Am - F - F

--------------------------------------------------------------------------------lyrics

--------------------------------------------------------------------------------

intro/verse

Uptown again

Nobody home

Feeling surrounded

Should never left me on my own

bridge

verse

Remember nothing, hypnotize

They say the eyes they never lie

Your eyes have failed you dear, deny

Deny, deny I know you'll try

chorus

Baby, untie me now

I'm ready to get down

Get down and move around

Baby, you cry too much

I'm tired of the sound

Yer such a baby

verse

Uptown again

Throw me a bone

Feelin' surrounded

I've never done so well alone

bridge

chorus w/variations on bridge

Baby, baby, baby

--------------------------------------------------------------------------------

Get this song at:  amazon.com sheetmusicplus.com

Share your thoughts

0 Comments found